Song name
# A B C D E F G H I J K L M N O P Q R S T U V W X Y Z

Apocalypse Hoboken - Box Of Pills tab

-----------------------------------------------------------------------------
                            Box of Pills  - Apocalypse Hoboken
-----------------------------------------------------------------------------
Tabbed by:D. Fuller
E-mail:heyironhead@gmail.com

Tuning: Standard- EADGBe

e|---------------------------------|
B|---------------------------------|
G|---------------------------------|
D|77777777-------------------------|
A|5554444477755555-----------------|
E|--------55533333-----------------|


e----------------------------------|
B----------------------------------|
G----------------------------------|
D77777777--------------------------|
A555444447775----------------------|
E--------5553----------------------|

With one eye open I can see you


e|---------------------------------|
B|---------------------------------|
G|---------------------------------|
D|77777777-------------------------|
A|555444447775---------------------|
E|--------5553---------------------|

With one eye closed I can dream


e|---------------------------------|
B|---------------------------------|
G|---------------------------------|
D|7--7-----------------------------|
A|5--4---7--5----------------------|
E|-------5--3----------------------|


e|---------------------------------|
B|---------------------------------|
G|---------------------------------|
D|---------------------------------|
A|-5-5-5-5-5-5-5-5-5-5-5-5-5-5-5-5-|
E|-3-3-3-3-3-3-3-3-3-3-3-3-3-3-3-3-|

I forgot just who I was



e|---------------------------------|
B|---------------------------------|
G|---------------------------------|
D|-7-7-7-7-7-7-7-7-7-7-7-7-7-7-7-7-|
A|-5-5-5-5-5-5-5-5-5-5-5-5-5-5-5-5-|
E|---------------------------------|

And why I left for somebody else



e|---------------------------------|
B|---------------------------------|
G|---------------------------------|
D|---------------------------------|
A|-9-9-9-9-9-9-9-9-9-9-9-9-9-9-9-9-|
E|-7-7-7-7-7-7-7-7-7-7-7-7-7-7-7-7-|

I didn't mean to turn you upside down



e|---------------------------------|
B|---------------------------------|
G|---------------------------------|
D|---------------------------------|
A|-7-7-7-7-7-7-7-7-7-7-7-7-7-7-7-7-|
E|-5-5-5-5-5-5-5-5-5-5-5-5-5-5-5-5-|

I guess I got lost in a dream


e|---------------------------------|
B|---------------------------------|
G|---------------------------------|
D|---------------------------------|
A|-5-5-5-5-5-5-5-5-5-5-5-5-5-5-5-5-|
E|-3-3-3-3-3-3-3-3-3-3-3-3-3-3-3-3-|

And I can tell you sick I feel



e|---------------------------------|
B|---------------------------------|
G|---------------------------------|
D|-7-7-7-7-7-7-7-7-7-7-7-7-7-7-7-7-|
A|-5-5-5-5-5-5-5-5-5-5-5-5-5-5-5-5-|
E|---------------------------------|

Cuz I keep fucking up everything when it's fine



e|---------------------------------|
B|---------------------------------|
G|---------------------------------|
D|---------------------------------|
A|-9-9-9-9-9-9-9-9-9-9-9-9-9-9-9-9-|
E|-7-7-7-7-7-7-7-7-7-7-7-7-7-7-7-7-|

I know that no one is perfect



e|---------------------------------|
B|---------------------------------|
G|---------------------------------|
D|---------------------------------|
A|-7-7-7-7-7-7-7-7-7-7-7-7-7-7-7-7-|
E|-5-5-5-5-5-5-5-5-5-5-5-5-5-5-5-5-|

I guess I got caught in a dream


e|---------------------------------|
B|---------------------------------|
G|---------------------------------|
D|-7------5------4------5----------|
A|---0-0-----0-0----0-0---0-0------|
E|---------------------------------|

Like a box of pills is a hundred chills
(Not 100% on this part, and the rhythm is a little weird)


e|---------------------------------|
B|---------------------------------|
G|---------------------------------|
D|-4-4-4-4-4-4-4-4-----------------|
A|-4-4-4-4-4-4-4-4-----------------|
E|-2-2-2-2-2-2-2-2-----------------|
  
And a $400 mistake


e|---------------------------------|
B|---------------------------------|
G|---------------------------------|
D|-7------5------4------5----------|
A|---0-0-----0-0----0-0---0-0------|
E|---------------------------------|

It took a lot from me and more from you


e|---------------------------------|
B|---------------------------------|
G|---------------------------------|
D|-4-4-4-4-4-4-4-4-----------------|
A|-4-4-4-4-4-4-4-4-----------------|
E|-2-2-2-2-2-2-2-2-----------------|
  
So many of us can relate


e|----------------------------------|
B|----------------------------------|
G|----------------------------------|
D|77777777--------------------------|
A|5554444477755555------------------|
E|--------55533333------------------|

e|----------------------------------|
B|----------------------------------|
G|----------------------------------|
D|77777777--------------------------|
A|555444447775----------------------|
E|--------5553----------------------|

Like a box of pills I'll never leave you


e|----------------------------------|
B|----------------------------------|
G|----------------------------------|
D|7--7------------------------------|
A|5--4---7--5-----------------------|
E|-------5--3-----------------------|


e|----------------------------------|
B|----------------------------------|
G|----------------------------------|
D|----------------------------------|
A|-5-5-5-5-5-5-5-5-5-5-5-5-5-5-5-5--|
E|-3-3-3-3-3-3-3-3-3-3-3-3-3-3-3-3--|

I forgot just who I was



e|----------------------------------|
B|----------------------------------|
G|----------------------------------|
D|-7-7-7-7-7-7-7-7-7-7-7-7-7-7-7-7--|
A|-5-5-5-5-5-5-5-5-5-5-5-5-5-5-5-5--|
E|----------------------------------|

And why I left for somebody else



e|----------------------------------|
B|----------------------------------|
G|----------------------------------|
D|----------------------------------|
A|-9-9-9-9-9-9-9-9-9-9-9-9-9-9-9-9--|
E|-7-7-7-7-7-7-7-7-7-7-7-7-7-7-7-7--|

I didn't mean to turn you upside down



e|----------------------------------|
B|----------------------------------|
G|----------------------------------|
D|----------------------------------|
A|-7-7-7-7-7-7-7-7-7-7-7-7-7-7-7-7--|
E|-5-5-5-5-5-5-5-5-5-5-5-5-5-5-5-5--|

I guess I got lost in a dream


e|----------------------------------|
B|----------------------------------|
G|----------------------------------|
D|----------------------------------|
A|-5-5-5-5-5-5-5-5-5-5-5-5-5-5-5-5--|
E|-3-3-3-3-3-3-3-3-3-3-3-3-3-3-3-3--|

And I can tell you sick I feel



e|----------------------------------|
B|----------------------------------|
G|----------------------------------|
D|-7-7-7-7-7-7-7-7-7-7-7-7-7-7-7-7--|
A|-5-5-5-5-5-5-5-5-5-5-5-5-5-5-5-5--|
E|----------------------------------|

Cuz I keep fucking up everything when it's fine



e|----------------------------------|
B|----------------------------------|
G|----------------------------------|
D|----------------------------------|
A|-9-9-9-9-9-9-9-9-9-9-9-9-9-9-9-9--|
E|-7-7-7-7-7-7-7-7-7-7-7-7-7-7-7-7--|

I know that no one is perfect



e|----------------------------------|
B|----------------------------------|
G|----------------------------------|
D|----------------------------------|
A|-7-7-7-7-7-7-7-7-7-7-7-7-7-7-7-7--|
E|-5-5-5-5-5-5-5-5-5-5-5-5-5-5-5-5--|

I guess I got caught in a dream


e|----------------------------------|
B|----------------------------------|
G|----------------------------------|
D|----------------------------------|
A|-r-5-r-5-5-5-5-5-5-5-5-5-5-5-5-5--|
E|-r-3-r-3-3-3-3-3-3-3-3-3-3-3-3-3--|

I remember just who I am



e|----------------------------------|
B|----------------------------------|
G|----------------------------------|
D|-r-7-r-7-7-7-7-7-7-7-7-7-7-7-7-7--|
A|-r-5-r-5-5-5-5-5-5-5-5-5-5-5-5-5--|
E|----------------------------------|

And how much I thought I loved you



e|----------------------------------|
B|----------------------------------|
G|----------------------------------|
D|----------------------------------|
A|-r-9-r-9-9-9-9-9-9-9-9-9-9-9-9-9--|
E|-r-7-r-7-7-7-7-7-7-7-7-7-7-7-7-7--|

Keep my emotions from running away



e|----------------------------------|
B|----------------------------------|
G|----------------------------------|
D|----------------------------------|
A|-r-7-r-7-7-7-7-7-7-7-7-7-7-7-7-7--|
E|-r-5-r-5-5-5-5-5-5-5-5-5-5-5-5-5--|

And you can't see the light of another day


e|----------------------------------|
B|----------------------------------|
G|----------------------------------|
D|----------------------------------|
A|-5-5-5-5-5-5-5-5-5-5-5-5-5-5-5-5--|
E|-3-3-3-3-3-3-3-3-3-3-3-3-3-3-3-3--|

Etched in our bones are memories


e|----------------------------------|
B|----------------------------------|
G|----------------------------------|
D|-7-7-7-7-7-7-7-7-7-7-7-7-7-7-7-7--|
A|-5-5-5-5-5-5-5-5-5-5-5-5-5-5-5-5--|
E|----------------------------------|

That kept us from being enemies



e|----------------------------------|
B|----------------------------------|
G|----------------------------------|
D|----------------------------------|
A|-9-9-9-9-9-9-9-9-9-9-9-9-9-9-9-9--|
E|-7-7-7-7-7-7-7-7-7-7-7-7-7-7-7-7--|

I didn't mean to turn you upside down



e|----------------------------------|
B|----------------------------------|
G|----------------------------------|
D|----------------------------------|
A|-7-7-7-7-7-7-7-7-7-7-7-7-7-7-7-7--|
E|-5-5-5-5-5-5-5-5-5-5-5-5-5-5-5-5--|

I guess I got lost in a dream


e|----------------------------------|
B|----------------------------------|
G|----------------------------------|
D|-7------5------4------5-----------|
A|---0-0-----0-0----0-0---0-0-------|
E|----------------------------------|

Like a box of pills is a hundred chills


e|----------------------------------|
B|----------------------------------|
G|----------------------------------|
D|-4-4-4-4-4-4-4-4------------------|
A|-4-4-4-4-4-4-4-4------------------|
E|-2-2-2-2-2-2-2-2------------------|
  
And a $400 mistake


e|----------------------------------|
B|----------------------------------|
G|----------------------------------|
D|-7------5------4------5-----------|
A|---0-0-----0-0----0-0---0-0-------|
E|----------------------------------|

It took a lot from me and more from


e|----------------------------------|
B|----------------------------------|
G|----------------------------------|
D|-4--------------------------------|
A|-4--------------------------------|
E|-2--------------------------------|
  
You



************************************
| r   rest
| /   slide up
| \   slide down
| h   hammer-on
| p   pull-off
| ~   vibrato
| +   harmonic
| x   Mute note
| b   Bend
| pb  Pre-bend
| br  Bend release
| pbr Pre-bend release
| brb Bend release bend

************************************
Tap to rate this tab
# A B C D E F G H I J K L M N O P Q R S T U V W X Y Z