Song name
# A B C D E F G H I J K L M N O P Q R S T U V W X Y Z

Apocalypse Hoboken - Anorexic Complexion tab

Help us improve GuitareTab! Take a short survey!
Intro 
e|-------------------------------| 
B|-------------------------------| 
G|-----------1---2-1-------------| 
D|---2---2-4---------4---2-4-2---| 
A|-------------------------------| 
E|-------------------------------| 

"A lonely child"
e|---------------------------------------------| 
B|---------------------------------------------| 
G|-------5-------4-------5---------------------| 
D|---2---5---5---4---2---5---5---4-5-4---------| 
A|---2---3---5---2---2---3---5---4-5-4----x2---| 
E|---0-------3-------0-------3---2-3-2---------| 

"Time slips"
e|-----------------------------------| 
B|-----------------------------------| 
G|-----------7---5-----------7---5---| 
D|---8---7---7---5---8---7---7---5---| 
A|---8---7---5---3---8---7---5---3---| 
E|---6---5-----------6---5-----------| 

"With that magic size"
e|-------------------------| 
B|-------------------------| 
G|-------5---4---7---------| 
D|---5---5---4---7---------| 
A|---5---3---2---5----x4---| 
E|---3---------------------| 

Fill 
e|---------------| 
B|---------------| 
G|-----------1---| 
D|---2---2-4-----| 
A|---------------| 
E|---------------| 

thats about it i think...
Related for Anorexic Complexion tab