Song name
# A B C D E F G H I J K L M N O P Q R S T U V W X Y Z

Apocalyptica - Hall Of The Mountain King tab

Band:  Apocalyptica
Album: Cult
Song:  Hall of the Mountain King

.  - palm mute           /  - slide up to
\  - slide down to       ~  - vibrato
h  - hammer on           b  - Bend
p  - pull off            Suffixes for bend
t  - tap                 f  - full bend    h - half bend
ph - pinched harmonic    q  - quarter bend t - tap bend
*  - see comment         ^  - Hold bend    r release bend
x  - Stuccatto           ~  - vibrato bend
,  - slight palm mute    () - ghost note, sustained note
"  - tremolo note        <> - Trill

Tuning: Standard (E A D G B E)


E|-----------------------------------------------------------------|
B|-----------------------------------------------------------------|
G|-----------------------------------------------------------------|
D|-----------------------------------------------------2-0-------0-|
A|--------0-2---2----1---1----0---0-----------0-2---2------2---2---|
E|-0-2-3------3--------2--------1------0-2-3------3----------3-----|

E|-----------------------------------------------------------------|
B|-----------------------------------------------------------------|
G|-----------------------------------------------------2-0-------0-|
D|--------0-2---2----1---1----0---0-----------0-2---2------2---2---|
A|-0-2-3------3--------2--------1------0-2-3------3----------3-----|
E|-----------------------------------------------------------------|
Tap to rate this tab
# A B C D E F G H I J K L M N O P Q R S T U V W X Y Z