Song name
# A B C D E F G H I J K L M N O P Q R S T U V W X Y Z

Apocalyptica - Repressed tab

Drop C tuning - (C,G,C,F,A,D)

 V  - vibrate
 H  - hammer-on

Intro:
(Gu.1)              (Gu.2)
|--------------|    |--------------|
|--------------|    |--------------|
|--------------|    |--------------|
|--------------|    |--------------|
|--------------|    |--------------|
|----0-0-0-0---|    |---3-3-3-3----|

Before the verse:
(Gu.1)              (Gu.2)
|--------------|   |---------------|
|--------------|   |---------------|
|--------------|   |---------------|
|--0--0---0--0-|   |---1------3--4-|
|--0--0---0--0-|   |------3---3--4-|
|--0--0---0--0-|   |----------3--4-|


Verse:
(Gu's: 1&2)
|------------|
|------------|
|------------|
|--3-5-6-6-2-|
|--3-5-6-6-2-|
|--3-5-6-6-2-|

Intro to chorus:
(GU.1)                        (GU.2)
|---------------------------| |--6--4--7-----------|
|-------------|-----2---4-3-| |-----------|--------|
|---1-3---1-4-|-1-4---1-----| |-----------|--------|
|-3-----3-----|-------------| |-----------|--------|
|-------------|-------------| |-----------|--4--5--|
|---------------------------| |-----------|--------|

CHORUS:
(GU.1)
|--------------------------------------------------------------------------|
|--------|---------|--------|--------|---------|---------|---------|-------|
|-8-3-11-|---10-11-|---10-11|--------|---10-11-|---10-11-|---10----|-------|
|-8-3-11-|-6-10-11-|-9-10-11|-11-4-3-|-1-10-11-|-6-10-11-|-9-10-9--|-11-12-|
|-6-1-9--|-6-8--9--|-9-8--9-|-11-4-3-|-1-8--9--|-6-8--9--|-9-8--9--|-11-12-|
|----------6---------9--------11-4-3---1---------6---------9----9----11-12-|
(GU.2)
|--------------------------------------------------------------------------|
|---------|--------|--------|---------|---------|--------|--------|--------|
|--8-3-11-|--------|--------|---------|---------|--------|--------|--------|
|--8-3-11-|--6-6-6-|--9-9-9-|--11-4-3-|--1-1-1--|--6-6-6-|--9-9-9-|--11-12-|
|--6-1-9--|--6-6-6-|--9-9-9-|--11-4-3-|--1-1-1--|--6-6-6-|--9-9-9-|--11-12-|
|------------6-6-6----9-9-9----11-4-3----1-1-1-----6-6-6----9-9-9----11-12-|

Before the verse:
(Gu.1)              (Gu.2)
|---------------|   |----------------|
|--------|------|   |----------------|
|-----2--|------|   |----------------|
|--1--2--|-4--5-|   |---2-----|-4--5-|
|--1--0--|-4--5-|   |------4--|-4--5-|
|--1-------4--5-|   |-----------4--5-|

Verse:
(Gu's: 1&2)
|------------|
|------------|
|------------|
|--3-5-6-6-2-|
|--3-5-6-6-2-|
|--3-5-6-6-2-|

Intro to chorus:
(GU.1)                        (GU.2)
|---------------------------| |--6--4--7-----------|
|-------------|-----2---4-3-| |-----------|--------|
|---1-3---1-4-|-1-4---1-----| |-----------|--------|
|-3-----3-----|-------------| |-----------|--------|
|-------------|-------------| |-----------|--4--5--|
|---------------------------| |-----------|--------|

CHORUS:
(GU.1)
|--------------------------------------------------------------------------|
|--------|---------|--------|--------|---------|---------|---------|-------|
|-8-3-11-|---10-11-|---10-11|--------|---10-11-|---10-11-|---10----|-------|
|-8-3-11-|-6-10-11-|-9-10-11|-11-4-3-|-1-10-11-|-6-10-11-|-9-10-9--|-11-12-|
|-6-1-9--|-6-8--9--|-9-8--9-|-11-4-3-|-1-8--9--|-6-8--9--|-9-8--9--|-11-12-|
|----------6---------9--------11-4-3---1---------6---------9----9----11-12-|
(GU.2)
|--------------------------------------------------------------------------|
|---------|--------|--------|---------|---------|--------|--------|--------|
|--8-3-11-|--------|--------|---------|---------|--------|--------|--------|
|--8-3-11-|--6-6-6-|--9-9-9-|--11-4-3-|--1-1-1--|--6-6-6-|--9-9-9-|--11-12-|
|--6-1-9--|--6-6-6-|--9-9-9-|--11-4-3-|--1-1-1--|--6-6-6-|--9-9-9-|--11-12-|
|------------6-6-6----9-9-9----11-4-3----1-1-1-----6-6-6----9-9-9----11-12-|

Intro to chorus:
(GU.1)
|-----------------------------------------|
|--6H7-7H9-9-10(V)-|--9H10 10H12 12 13(V)-|
|------------------|----------------------|
|------------------|----------------------|   
|------------------|----------------------|
|-----------------------------------------|
(GU.2)
|---------------------|
|----------|----------|
|----------|----------|
|--1--4--7-|----------|     
|----------|----------|
|-------------1--4--7-|

CHORUS:
(GU.1)
|---------------------------------------------------------------------------|
|---------|---------|---------|--------|---------|---------|--------|-------|
|--8-3-11-|---10-11-|---10-11-|--------|---10-11-|---10-11-|---10---|-------|
|--8-3-11-|-6-10-11-|-9-10-11-|-11-4-3-|-1-10-11-|-6-10-11-|-9-10-9-|-11-12-|
|--6-1-9--|-6-8--9--|-9-8--9--|-11-4-3-|-1-8--9--|-6-8--9--|-9-8--9-|-11-12-|
|-----------6---------9---------11-4-3---1---------6---------9----9---11-12-|
(GU.2)
|---------------------------------------------------------------------------|
|---------|---------|---------|--------|---------|---------|--------|-------|
|--8-3-11-|---------|---------|--------|---------|---------|--------|-------|
|--8-3-11-|--6-6-6--|--9-9-9--|-11-4-3-|--1-1-1--|--6-6-6--|-9-9-9--|-11-12-|
|--6-1-9--|--6-6-6--|--9-9-9--|-11-4-3-|--1-1-1--|--6-6-6--|-9-9-9--|-11-12-|
|------------6-6-6-----9-9-9----11-4-3----1-1-1-----6-6-6----9-9-9----11-12-|



Last bit(Gu.2) / Chorus(Gu.2)
(GU.1)
|-------------------------------------------------------------------------|
|-------------------------------------------------------------------------|
|-------------------------------------------------------------------------|
|-1--8--6--3--4--6--8--1---------1--1--8--6--3--4--6--8--1--4--3--1--0--1-|    
|------------------------4--2--4------------------------------------------|
|-------------------------------------------------------------------------|

 (GU.2)
|--------------------------------------------------------------------|
|--------|-------|-------|--------|--------|-------|-------|---------|
|-8-3-11-|-------|-------|--------|---3-11-|-------|-------|---------|
|-8-3-11-|-6-6-6-|-9-9-9-|-11-4-3-|-1-3-11-|-6-6-6-|-9-9-9-|-11-12-1-|
|-6-1-9--|-6-6-6-|-9-9-9-|-11-4-3-|-1-1-9--|-6-6-6-|-9-9-9-|-11-12-1-|
|----------6-6-6---9-9-9---11-4-3---1--------6-6-6---9-9-9---11-12-1-|

Finish:
(Gu.1)              (Gu.2)
|---------------|   |----------------|
|--------|------|   |----------------|
|-----2--|------|   |----------------|
|--1--2--|-4--5-|   |---2-----|-4--5-|
|--1--0--|-4--5-|   |------4--|-4--5-|
|--1-------4--5-|   |-----------4--5-|
Tap to rate this tab
# A B C D E F G H I J K L M N O P Q R S T U V W X Y Z