Song name
# A B C D E F G H I J K L M N O P Q R S T U V W X Y Z

Apocalyptica - Angel tab

                         **FIRST ANGEL TAB!!!**
     This is my first tab so i think its 95% correct so  here is it:

E|---------------------------------------------------------------------|
B|---------------------------------------------------------------------|
G|-----------0---------------------------------------------------------|
D|-------------3-2-0---------------------------------------------------|
A|----0--2-3---------3--2--0--2--3-------------------------------------|
E|---------------------------------1-----------------------------------|


E|---------------------------------------------------------------------|
B|---------------------------------------------------------------------|
G|-----------0------4--5-----------------------------------------------|
D|-------------3-2--------3--3-----------------------------------------|
A|----0--2-3-----------------------------------------------------------|
E|---------------------------------------------------------------------|

                          **THAT WAS ALL FOLKS!**
Tap to rate this tab
 
# A B C D E F G H I J K L M N O P Q R S T U V W X Y Z