Song name
# A B C D E F G H I J K L M N O P Q R S T U V W X Y Z

Apocalyptica - Life Burns tab

|----------------------------------|----------------------------------|
|----------------------------------|----------------------------------|
|----------------------------------|----------------------------------|
|----------------------------------|----------------------------------|
|----------------------------------|----------------------------------|
|--0---3-0--3-5-3--0--0-3-0-3-5-3-2|--0---3-0--3-5-3--0--0-3-0-5-6-5-3|

|-------------------------------INTRO--------------------------------|


|-----------------------------------------------|
|-----------------------------------------------|
|-----------------------------------------------|
|--5------4-------------------------------------|
|--3...---2...----------------------------------|
|---------------0---3-0--3-5-3--0--0-3-0-3-5-3-2|

|--------------------Vocals---------------------|


|----------------------------:|
|----------------------------:|       : = Repeticion
|----------------------------:|
|--5------4------9----7------:|
|--3...---2...---7...-5...---:|
|----------------------------:|



|----------------------------------------------------------------|
|----------------------------------------------------------------|
|----------------------------------------------------------------|
|--5----4----------7-----5----4----------------7---77----7-7-7---|
|--3...-2...-2-----5...--3...-2...-------------5---55----5-5-5---|
|------------0...------------------0-3-0-3-5-3-------------------|

|-----------------------------CHORUS-----------------------------|
Tap to rate this tab
# A B C D E F G H I J K L M N O P Q R S T U V W X Y Z