Song name
# A B C D E F G H I J K L M N O P Q R S T U V W X Y Z

Apocalyptica - Im Not Jesus tab

Intro tremelo picking all x16 exept last 8 x9

e--------------------|
b--6--2--8--6--2--8--|
g--------------------|
D--------------------|
A--------------------|
D--------------------|
Verse

e----------------------------------------|
b--6666666666666666--22222222--88888888--|
g----------------------------------------|
D----------------------------------------|
A----------------------------------------|
D----------------------------------------|x3
Pre Chorus

e----------------------------------------------|
b----------------------------------------------|
g------------11b-----------11b------------11b--|
D----------------------------------------------|
A--2h4-4-4-4-----2h4-4-4-4------2h4-4-4-4------|
D--2h4-4-4-4-----2h4-4-4-4------2h4-4-4-4------|
every time after is

e--------------------------------------------------------------|
b--------------------------------------------------------------|
g------------11b------------11b------------11b------------11b--|
D--------------------------------------------------------------|
A--2h4-4-4-4------2h4-4-4-4------2h4-4-4-4------2h4-4-4-4------|
D--2h4-4-4-4------2h4-4-4-4------2h4-4-4-4------2h4-4-4-4------|

Chorus

e----------------------------------------------------------------------|
b----------------------------------------------------------------------|
g----------------------------------------------------------------------|
D--6-6-6-6-6-6-6-6--4-4-4-4-4-4-4-4--2-2-2-2-2-2-2-2-------------------|
A--4-4-4-4-4-4-4-4--2-2-2-2-2-2-2-2--0-0-0-0-0-0-0-0--6-6-6-6-6-6-6-6--|
D-----------------------------------------------------6-6-6-6-6-6-6-6--|

e-----------------------|
b-----------------------|
g-----------------------|
D-----------------------|
A--8-8-8-8-10-10-10-10--|
D--8-8-8-8-10-10-10-10--|
Riff D

e------------------------------|
b------------------------------|
g------------------------------|
D-----------*-*---*-*---*------|
A--2h4-4-4--0-0-4-0-0-4-0-4h5--|
D--2h4-4-4--0-0-4-0-0-4-0-4h5--|x4

Verse
Pre chorus
Riff D
Chorus
Chorus during the Bridge
Pre chorus
Riff D
Chorus
Tap to rate this tab
 
# A B C D E F G H I J K L M N O P Q R S T U V W X Y Z