Song name
# A B C D E F G H I J K L M N O P Q R S T U V W X Y Z

Apocalyptica - Life Burns chords

Highlighted       Show chord diagrams
-------------------------------------------------------------------------------
                           Apocalyptica - Life Burns
-------------------------------------------------------------------------------
Tabbed by:       MartinMessner
Email:           bigbonsai@hotmail.de


Tuning:          E - Standard

//////////////////////////////////////////////
//                                          //
//  RATING THIS TAB TAKES ABOUT 5 SECONDS   //
//  AND HELPS ME TO IMPROVE MY WORK         //
//                                          //
//////////////////////////////////////////////


Maintheme 

Guitar 1
e|--------------------|        e|-------------------|
B|--------------------|        B|-------------------|
G|--------------------|        G|-------------------|
D|--------------------|        D|-------------------|
A|--------------------|        A|-------------------|
E|--0-0-3-0-3h5p3-0---|        E|--0-0-3-0-5h6-5-3--|
    p.m.-----------                p.m.-----------

(can be played as a Power chord (5-chord), but its way harder)
(better just play it with two guitar:)

Guitar 2
e|--------------------|        e|-------------------|
B|--------------------|        B|-------------------|
G|--------------------|        G|-------------------|
D|--------------------|        D|----------2h3-2----|
A|--2-2-5-2-5h7p5-2---|        A|--2-2-5-2-------5--|
E|--------------------|        E|-------------------|
    p.m.-----------                p.m.-----------

or simply skipp the 0-power chords:

e|--------------------|        e|-------------------|
B|--------------------|        B|-------------------|
G|--------------------|        G|-------------------|
D|------5---5/7-5-----|        D|------5---7/8-7-5--|
A|------5---5/7-5-----|        A|------5---7/8-7-5--|
E|--0-0-3-0-3/5-3-0---|        E|--0-0-3-0-5/6-5-3--|
    p.m.-----------                p.m.-----------


...


Em   : 022000
D    : XX0232
Dsus2: XX0230
Dsus4: XX0233
Bm   : X24432
C    : X3201X
G    : 320033




[Verse]

 Em          D             Em  Bm
We break our enemies with fear and

       C            D     Dsus2  Em
We've seen how the tears come   around

 C             D            Em   D
We build our confidence on wasteland

      C             D     Dsus4  Em
We've seen how the walls come   down

...

[Chorus]

Bm                 F#
A man dies like a butterfly

Em                  D     Dsus4         C
Life burns from the touch of the Reaper

D     Dsus2      Em       G
All things must pass



Enjoy,
Martin Messner
Tap to rate this tab
 
# A B C D E F G H I J K L M N O P Q R S T U V W X Y Z