Song name
# A B C D E F G H I J K L M N O P Q R S T U V W X Y Z

Apocalyptica - Life Burns tab

APOCALYPTICA - Life Burns!
tuning: CGCFAD

. - palm mute

INTRO
d|----------------------------------------------------------------|x2
a|----------------------------------------------------------------|
f|----------------------------------------------------------------|
c|--4--7-4-7-9-7-4--4-7-4-7-9-7-4-4--7-4-7-9-7-4--4-7-4-9-10-9-7--|
g|--4--7-4-7-9-7-4--4-7-4-7-9-7-4-4--7-4-7-9-7-4--4-7-4-9-10-9-7--|
c|--4--7-4-7-9-7-4--4-7-4-7-9-7-4-4--7-4-7-9-7-4--4-7-4-9-10-9-7--|


VERSE
d|-------------------------------------------------------------------|
a|-------------------------------------------------------------------|
f|-------------------------------------------------------------------|
c|--4--7-4-7-9-7-4--4-7-4-7-9-7-4----4--7-4-7-9-7-4--4-7-4-7-9-7-4---|
g|--4--7-4-7-9-7-4--4-7-4-7-9-7-4----4--7-4-7-9-7-4--4-7-4-7-9-7-4---|
c|--4--7-4-7-9-7-4--4-7-4-7-9-7-4----4--7-4-7-9-7-4--4-7-4-7-9-7-4---|

d|----------------------------------------------------------------|x2
a|----------------------------------------------------------------|
f|----------------------------------------------------------------|
c|--4--7-4-7-9-7-4--4-7-4-7-9-7-4-4--7-4-7-9-7-4--4-7-4-9-10-9-7--|
g|--4--7-4-7-9-7-4--4-7-4-7-9-7-4-4--7-4-7-9-7-4--4-7-4-9-10-9-7--|
c|--4--7-4-7-9-7-4--4-7-4-7-9-7-4-4--7-4-7-9-7-4--4-7-4-9-10-9-7--|


CHORUS
d|--------------------------------------------------------------------------|
a|--------------------------------------------------------------------------|
f|--88888888-66666666-------------------------88-66666666-------------------|
c|--88888888-66666666-44444444-22222222-00000088-66666666-4-7479743-333333--|
g|--66666666-44444444-44444444-22222222-00000066-44444444-4-7479743-333333--|
c|--------------------44444444-22222222-000000------------4-7479743-333333--|
                                                                    ......
d|------------------------------------------------|
a|------------------------------------------------|
f|-----------66666666-----------------------------|
c|--22222222-66666666-44444444-22222222-00000000--|
g|--22222222-44444444-44444444-22222222-00000000--|
c|--22222222----------44444444-22222222-00000000--|

d|----------------------------------------------------------------|x2
a|----------------------------------------------------------------|
f|----------------------------------------------------------------|
c|--4--7-4-7-9-7-4--4-7-4-7-9-7-4-4--7-4-7-9-7-4--4-7-4-9-10-9-7--|
g|--4--7-4-7-9-7-4--4-7-4-7-9-7-4-4--7-4-7-9-7-4--4-7-4-9-10-9-7--|
c|--4--7-4-7-9-7-4--4-7-4-7-9-7-4-4--7-4-7-9-7-4--4-7-4-9-10-9-7--|

VERSE
d|-------------------------------------------------------------------|
a|-------------------------------------------------------------------|
f|-------------------------------------------------------------------|
c|--4--7-4-7-9-7-4--4-7-4-7-9-7-4----7--8-7-8-7---7--7-8-7-9-7-8-7---|
g|--4--7-4-7-9-7-4--4-7-4-7-9-7-4----7--8-7-8-7---7--7-8-7-9-7-8-7---|
c|--4--7-4-7-9-7-4--4-7-4-7-9-7-4----7--8-7-8-7---7--7-8-7-9-7-8-7---|

d|----------------------------------------------------------------|
a|----------------------------------------------------------------|
f|----------------------------------------------------------------|
c|--4--7-4-7-9-7-4--4-7-4-7-9-7-4-4--7-4-7-9-7-4--4-7-4-9-10-9-7--|
g|--4--7-4-7-9-7-4--4-7-4-7-9-7-4-4--7-4-7-9-7-4--4-7-4-9-10-9-7--|
c|--4--7-4-7-9-7-4--4-7-4-7-9-7-4-4--7-4-7-9-7-4--4-7-4-9-10-9-7--|

CHORUS
d|--------------------------------------------------------------------------|
a|--------------------------------------------------------------------------|
f|--88888888-66666666-------------------------88-66666666-------------------|
c|--88888888-66666666-44444444-22222222-00000088-66666666-4-7479743-333333--|
g|--66666666-44444444-44444444-22222222-00000066-44444444-4-7479743-333333--|
c|--------------------44444444-22222222-000000------------4-7479743-333333--|
                                                                    ......
d|------------------------------------------------|
a|------------------------------------------------|
f|-----------66666666-----------------------------|
c|--22222222-66666666-44444444-22222222-00000000--|
g|--22222222-44444444-44444444-22222222-00000000--|
c|--22222222----------44444444-22222222-00000000--|

INTERLUDE
d|----------------------------------------------------------------|x6
a|----------------------------------------------------------------|
f|----------------------------------------------------------------|
c|----------------------------------------------------------------|
g|----------------------------------------------------------------|
c|--4--7-4-7-9-7-4--4-7-4-7-9-7-4-4--7-4-7-9-7-4--4-7-4-9-10-9-7--|
    .  . . . . . .  . . . . . . . .  . . . . . .  . . . . .  . . 
 
CHORUS
d|--------------------------------------------------------------------------|
a|--------------------------------------------------------------------------|
f|--88888888-66666666-------------------------88-66666666-------------------|
c|--88888888-66666666-44444444-22222222-00000088-66666666-4-7479743-333333--|
g|--66666666-44444444-44444444-22222222-00000066-44444444-4-7479743-333333--|
c|--------------------44444444-22222222-000000------------4-7479743-333333--|
                                                                    ......
d|------------------------------------------------|
a|------------------------------------------------|
f|-----------66666666-----------------------------|
c|--22222222-66666666-44444444-22222222-00000000--|
g|--22222222-44444444-44444444-22222222-00000000--|
c|--22222222----------44444444-22222222-00000000--|

OUTRO
d|----------------------------------------------------------------|
a|----------------------------------------------------------------|
f|----------------------------------------------------------------|
c|--4--7-4-7-9-7-4--4-7-4-7-9-7-4-4--7-4-7-9-7-4--4-7-4-9-10-9-7--|
g|--4--7-4-7-9-7-4--4-7-4-7-9-7-4-4--7-4-7-9-7-4--4-7-4-9-10-9-7--|
c|--4--7-4-7-9-7-4--4-7-4-7-9-7-4-4--7-4-7-9-7-4--4-7-4-9-10-9-7--|

d|--------------------------------------------------------------------------|
a|--------------------------------------------------------------------------|
f|--88888888-66666666-------------------------88-66666666-------------------|
c|--88888888-66666666-44444444-22222222-00000088-66666666-4-7479743-333333--|
g|--66666666-44444444-44444444-22222222-00000066-44444444-4-7479743-333333--|
c|--------------------44444444-22222222-000000------------4-7479743-333333--|
                                                                    ......
d|------------------------------------------------|
a|------------------------------------------------|
f|-----------66666666-----------------------------|
c|--22222222-66666666-44444444-22222222-00000000--|
g|--22222222-44444444-44444444-22222222-00000000--|
c|--22222222----------44444444-22222222-00000000--|

d|----------------------------------------------------------------|x2
a|----------------------------------------------------------------|
f|----------------------------------------------------------------|
c|--4--7-4-7-9-7-4--4-7-4-7-9-7-4-4--7-4-7-9-7-4--4-7-4-9-10-9-7--|
g|--4--7-4-7-9-7-4--4-7-4-7-9-7-4-4--7-4-7-9-7-4--4-7-4-9-10-9-7--|
c|--4--7-4-7-9-7-4--4-7-4-7-9-7-4-4--7-4-7-9-7-4--4-7-4-9-10-9-7--|

END NOTE
d|-----|
a|-----|
f|-----|
c|--4--|
g|--4--|
c|--4--|
Tap to rate this tab
 
# A B C D E F G H I J K L M N O P Q R S T U V W X Y Z