Song name
# A B C D E F G H I J K L M N O P Q R S T U V W X Y Z

Apocalyptica - Beyond Time tab

Song: Beyond Time
Band: Apocalyptica
Album: Cult
Year: 2000

E -------------|---------------|-------|-------|---|-------------|-----|
B -------------|---------------|-------|-------|---|-------------|-----|
G -----3-----3-|---------------|-----3-|-----3-|-2-|-----3-----3-|-----|
D ---0-----0---|-0---3-2-0---0-|---0---|---0---|-0-|---0-----0---|-0---|
A -------------|---0-------0---|-------|-------|---|-------------|---0-|
E -3-----1-----|---------------|-3-----|-1-----|---|-3-----1-----|-----|

E -----------|-------------|---------------|-------------|-------------|
B -----------|-------------|---------------|-------------|-------------|
G -----------|-----3-----3-|---------------|-----3-----3-|-------------|
D -3-2-0---0-|---0-----0---|-0---3-2-0---0-|---0-----0---|-0---3-2-0---|
A -------0---|-------------|---0-------0---|-------------|---0-------0-|
E -----------|-3-----1-----|---------------|-3-----1-----|-------------|

E -|-------------|-------------|-----------------|------|-------------|
B -|-------------|-------------|-----------------|------|-------------|
G -|-----3-----3-|-------------|-----3-------3-2-|------|-----3-------|
D -|---0-----0---|-0-0-0-0-0-0-|---0-------0---0-|------|---0-------0-|
A -|-------------|-0-0-0-0-0-0-|-----------------|------|-------------|
E -|-3-----1-----|-------------|-3-----3-1-------|------|-3-----3-1---|

E ----|------|-------------|-------------|-------------|-----------|---|
B ----|------|-------------|-------------|-------------|-----------|---|
G 3-2-|------|-----3-----3-|-------------|-----3-----3-|-----------|---|
D --0-|------|---0-----0---|-0---3-2-0---|---0-----0---|-0---3-2-0-|---|
A ----|------|-------------|---0-------0-|-------------|---0-------|---|
E ----|------|-3-----1-----|-------------|-3-----1-----|-----------|-3-|

E -----------|-------------|---------------|---------------|-----------|
B -----------|-------------|---------------|---------------|-----------|
G ---3-----3-|-------------|-----3-----3-2-|---------------|-----3-----|
D -0-----0---|-0---3-2-0---|---0-----0---0-|-0-0-0-0-0---0-|---0-------|
A -----------|---0-------0-|---------------|-0-0-0-0-0-5---|-----------|
E -----1-----|-------------|-3-----1-------|-----------5-5-|-3-----3-1-|

E -------|------|-----------------|------|-----------------|
B -------|------|-----------------|------|-----------------|
G ---3-2-|------|-----3-------3-2-|------|-----3-------3-2-|
D -0---0-|------|---0-------0---0-|------|---0-------0---0-|
A -------|------|-----------------|------|-----------------|
E -------|------|-3-----3-1-------|------|-3-----3-1-------|

That's all there is too it.
Tap to rate this tab
# A B C D E F G H I J K L M N O P Q R S T U V W X Y Z