Guitaretab - guitar tabs
Song name
# A B C D E F G H I J K L M N O P Q R S T U V W X Y Z

Apocalyptica - Im Not Jesus tab

Apocalyptica
I'm Not Jesus
Worlds Collide
(feat. Corey Taylor)

Tuning: D,A,D,G,B,e

pretty simple song, melodically haunting...

Bass Intro
|-------------------|
|-------------------|
|-2-4-4-4-2h4-44-4^-|
|-------------------|
slight gradual bend^

repeated until pre-chorus

Pre-Chorus
|--------|--------|--------|--------|--------|--------|--------|--------|
|--------|--------|--------|--------|--------|--------|--------|--------|
|--------|-11b----|--------|-11b----|--------|-11b----|--------|-11b----|
|-2h4444-|--------|-2h4444-|--------|-2h4444-|--------|-2h4444-|--------|
|-2h4444-|--------|-2h4444-|--------|-2h4444-|--------|-2h4444-|--------|
|-2h4444-|--------|-2h4444-|--------|-2h4444-|--------|-2h4444-|--------|
the following pre-chorus' vary

Chorus
|---------------------------------------------|
|---------------------------------------------|
|---------------------------------------------|
|-1111111111111111-99999999-77777777-44446666-|
|-1111111111111111-99999999-77777777-44446666-|
|-1111111111111111-99999999-77777777-44446666-|
 (^that's eleven^)

thats all i got so far, any add-ons welcome

Lyrics

Dirty little secret
Dirty little lies
Say your prayers and call me rare
Save your soul tonight
[ Tab from: http://www.guitaretab.com/a/apocalyptica/97616.html ]
Drift among the faithfull
Bury your desires
Aberrations fill your head
You need a place to hide
And I am

Do you remember me?
And the kid I used to be?
Do you remember me?

When your worldís come crashing down
I want to relive
Your god is looking down on me!

Iím not Jesus,
Jesus wasnít fair!

You confess it all away,
But itís only shit to me
Your god is looking down on me!

Iím not Jesus,
I will not forgive!

No I wonít! (2x)

Iíve thought you were a good man,
Iíve thought you talked to god.
Your hippocratic messiah and child abusive turned satanic

Do you remember me?
Do you remember me?
And the kid I used to be?
Do you remember?
Do you remember?

When your own world comes undone,
Let me be the one to say
Your god is looking down on me!

Iím not Jesus,
You canít run away!

And the innocence you spoil
Find a way to live
Your god is looking down on me!

Iím not Jesus
I will not forgive!

I wonít forgive.
I wonít do whatever you want to.
(2x)

Do you remember me?
And the kid I used to be?
Not the same as I used to be!
Oh, do you remember me?

Nooo!

When your worldís come crashing down,
I want to relive
Your god is looking down on me

Iím not Jesus
Jesus wasnít fair!

You confess it all away,
But itís only shit to me!
Your god is looking down on me!

Iím not Jesus,
I will not,
Iím not Jesus,
I will not forgive!

Oh, I will not forgive, yeah yeah!
No, I will not forgive!

yeah dude...
Related for Im Not Jesus tab