Song name
# A B C D E F G H I J K L M N O P Q R S T U V W X Y Z

Apollo 3 - Wir Sehn Uns Dann Am Meer tab

I'm fairly certain this is correct. There are some small details I 
haven't covered, but this is the guitar part of the song, which is 
pretty easy really. I've added the chords at the top of the verse 
part, just to make it easier to play.

Apollo 3's official webpage now redirects to their Facebook page:
https://www.facebook.com/apollo3.tv

-----------------------------------------------------------------
WIR SEHN UNS DANN AM MEER - Apollo 3
-----------------------------------------------------------------
Tabbed by:
Email: fanaticalpotato@gmail.com

Tuning: Standard


Verse

Ich weiß, dass sie es wissen...
  G#
e|---------------------------------------------------------------|
B|-9----9----9--9----9----9--9----9--9---------------------------|
G|-8----8----8--8----8----8--8----8--8---------------------------|
D|-10---10---10-10---10---10-10---10-10--------------------------|
A|-11---11---11-11---11---11-11---11-11--------------------------|
E|---------------------------------------------------------------|

  Cm
e|---------------------------------------------------------------|
B|-8----8----8--8----8----8--8----8--8---------------------------|
G|-8----8----8--8----8----8--8----8--8---------------------------|
D|-10---10---10-10---10---10-10---10-10--------------------------|
A|-10---10---10-10---10---10-10---10-10--------------------------|
E|---------------------------------------------------------------|

  Gm
e|---------------------------------------------------------------|
B|-11---11---11-11---11---11-11---11-11--------------------------|
G|-12---12---12-12---12---12-12---12-12--------------------------|
D|-12---12---12-12---12---12-12---12-12--------------------------|
A|-10---10---10-10---10---10-10---10-10--------------------------|
E|---------------------------------------------------------------|

  A#
e|---------------------------------------------------------------|
B|-11---11---11-11---11---11-11---11-11--------------------------|
G|-10---10---10-10---10---10-10---10-10--------------------------|
D|-12---12---12-12---12---12-12---12-12--------------------------|
A|-13---13---13-13---13---13-13---13-13--------------------------|
E|---------------------------------------------------------------|



Chorus

Wir seh'n uns dann am Meer...
e|---------------------------------------------------------------|
B|---------------------------------------------------------------|
G|---------------------------------------------------------------|
D|--6--6--6--6--6--6--6--6--6--6--6--6--6--6--6--6---------------|
A|--6--6--6--6--6--6--6--6--6--6--6--6--6--6--6--6---------------|
E|--4--4--4--4--4--4--4--4--4--4--4--4--4--4--4--4---------------|

e|---------------------------------------------------------------|
B|---------------------------------------------------------------|
G|---------------------------------------------------------------|
D|-/10-10-10-10-10-10-10-10-10-10-10-10-10-10-10-10--------------|
A|-/10-10-10-10-10-10-10-10-10-10-10-10-10-10-10-10--------------|
E|-/8--8--8--8--8--8--8--8--8--8--8--8--8--8--8--8---------------|

e|---------------------------------------------------------------|
B|---------------------------------------------------------------|
G|---------------------------------------------------------------|
D|-\5--5--5--5--5--5--5--5--5--5--5--5--5--5--5--5---------------|
A|-\5--5--5--5--5--5--5--5--5--5--5--5--5--5--5--5---------------|
E|-\3--3--3--3--3--3--3--3--3--3--3--3--3--3--3--3---------------|

e|---------------------------------------------------------------|
B|---------------------------------------------------------------|
G|---------------------------------------------------------------|
D|-/8--8--8--8--8--8--8--8--8--8--8--8--8--8--8--8---------------|
A|-/8--8--8--8--8--8--8--8--8--8--8--8--8--8--8--8---------------|
E|-/6--6--6--6--6--6--6--6--6--6--6--6--6--6--6--6---------------|



Bridge (which extends into the final chorus)

e|---------------------------------------------------------------|
B|---------------------------------------------------------------|
G|-12-12-12------------------------------------------------------|
D|-------------10---10-10-10-10---10---10---10-10----------------|
A|-10-10-10------------------------------------------------------|
E|-------------8----8--8--8--8----8----8----8--8-----------------|

e|---------------------------------------------------------------|
B|---------------------------------------------------------------|
G|-12-12-12------------------------------------------------------|
D|-------------10---10-10-10-10---10---10---10-10----------------|
A|-10-10-10------------------------------------------------------|
E|-------------8----8--8--8--8----8----8----8--8-----------------|

e|---------------------------------------------------------------|
B|---------------------------------------------------------------|
G|-10-10-10------------------------------------------------------|
D|----------8----8--8--8--8----8----8----8--8--------------------|
A|-8--8--8-------------------------------------------------------|
E|----------6----6--6--6--6----6----6----6--6--------------------|

e|---------------------------------------------------------------|
B|---------------------------------------------------------------|
G|---------------------------------------------------------------|
D|-8/15-15-15-15-15-15-15-15-15-15-15-15-15-15-15-15-------------|
A|---------------------------------------------------------------|
E|-6/13-13-13-13-13-13-13-13-13-13-13-13-13-13-13-13-------------|



| /  slide up
| \  slide down
| h  hammer-on
| p  pull-off
| ~  vibrato
| +  harmonic
| x  Mute note
Tap to rate this tab
# A B C D E F G H I J K L M N O P Q R S T U V W X Y Z