Song name
# A B C D E F G H I J K L M N O P Q R S T U V W X Y Z

Apollo 440 - Lost In Space Theme tab

Song: Lost in Space (Theme)
Artist: Apollo 440
Tabbed by: QuiGonTheHippy

Intro/Part A (after drums)
e-------------------------------------------------------|
B-------------------------------------------------------|
G------------------------------------------8--9--10-----|
D------------------------------------------8--9--10-----| x4
A------------------------------------------6--7--8------|
D--888777666333-888777444333-888777666333---------------|
 pm............ ............ ............

Part B
e-------------------------------------------------------|
B-------------------------------------------------------|
G--8--9--10--8--9--10--8--9--10-------------------------|
D--8--9--10--8--9--10--8--9--10-------------------------|
A--6--7--8---6--7--8---6--7--8--------------------------|
D-------------------------------------------------------|

Part C
e-------------------------------------------------------|
B-------------------------------------------------------|
G-------------------------------------------------------|
D--8--86--633--8--86-633--8--86--633--8--86-633---------|
A--8--86--633--8--86-633--8--86--633--8--86-633---------|
D--8--86--633--8--86-633--8--86--633--8--86-633---------|
   With Wah.................................
Part C (cont.)
e-------------------------------------------------------|
B-------------------------------------------------------|
G-------------------------------------------------------|
D--6--64--411--6--64--411--6--64--411--6--64--411-------|
A--6--64--411--6--64--411--6--64--411--6--64--411-------|
D--6--64--411--6--64--411--6--64--411--6--64--411-------|
   With Wah

Chorus (Keyboard Part) With part C in background
e--6-646--------6-646--------4-434----------------|----------|
B--------6-3----------6-3----------4-1------------|-3-4-5----|
G------------3------------3------------2-1--0-----|----------|
D---------------------------------------------(x2)|----------|
A-------------------------------------------------|----------|
D-------------------------------------------------|----------|

Part D
e-------------------------------------------------------|
B-------------------------------------------------------|
G----5-7-8---5-7-8---5-7-8---5-7-8----------------------|
D--6-------6-------6-------6----------------------------|
A-------------------------------------------------------|
E-------------------------------------------------------|
 Pm...............................

Part E
e-------------------------------------------------------|
B-------------------------------------------------------|
G----3-5-6---3-5-6---1-3-4---1-3-4----------------------|
D--4-------4-------2-------2----------------------------|
A-------------------------------------------------------|
E-------------------------------------------------------|
 Pm...........................

Order:

Intro/Part A
Part B
Part C
Chorus with Part C
Part A
Part D (x2) with Part C
Chorus with Part D (x2) and Part C
Part E with Chorus
-Break-
Part A
Part B
Chorus with Part D followed by Part E (x2)
End

That should be it. There is a slight pitch change at the end but that's easily 
A fairly cool song, I quite enjoyed it.
Any questions just message me.
QGTH
Tap to rate this tab
# A B C D E F G H I J K L M N O P Q R S T U V W X Y Z