Apollo 440 - Lost In Space Theme tab

Apollo 440 - Lost in Space

tab:a.k Senftleber :}

mix to match

standard tuning

----------------------------------------|
----------------------------------------|
--------------------------8-9-10--------|
--------------------------8-9-10--------|
--------------------------6-7-8---------|
-6-6-6-5-5-5-4-4-4-1-1------------------|

"ROCK N ROLL"
---------------------------|
---------------------------|
---------------------------|
---------------------------|
---------------------------|
-6-6-6-4-4-4-1-1-----------| wah-wah

                                      First time only
--6-5-6-6------------4-3-4-4---------I----------------|
----------6-3----------------4-1-----I---------6-7-8--|
--------------3------------------1---I----------------|
-----------------X2----------------4 I-3--------------|
-------------------------------------I----------------|
-------------------------------------I----------------|

WAH
---------------|
---------------|
---------------|
---------------|
-----4-4-4h6---|
-6-6-----------|

----------------------------------------------------|
----------------------------------------------------|
----------------------------------------------------|
---12-14-15-X8---10-12-13-X4--8-10-11-X2--7-9-10-X2-|
-13------------11------------9-----------8----------|
----------------------------------------------------|
Tap to rate this tab
 
# A B C D E F G H I J K L M N O P Q R S T U V W X Y Z