Song name
# A B C D E F G H I J K L M N O P Q R S T U V W X Y Z

Apollo 440 - Aint Talking Bout Dub tab

Author/Artist: Apollo 440
Title: Ain't Talking Bout Dub
Transcribed by: Robert Karlsson
Email: bobbe7@hotmail.com

Ther are two ways of playing this song. The second version is probably a little
bit easier than the first,  because you don't have to move your left hand that much!

1st Version:
---------2-3-----|-5-0-----------|-------------------------------------------|
-----3-------3---|-------3---2---|-------------------------------------------|
-------4-------4-|-----2---------|-------------------------------------------|
---4-------------|---------------|-------------------------------------------|
-2---------------|---------------|-------------------------------------------|
-----------------|---------------|-------------------------------------------|
2nd Version:
-----------------|----------------|------------------------------------------|
---------7-8-----|-10-------------|------------------------------------------|
-----7-------7---|----9---7---6---|------------------------------------------|
-------9-------9-|------7---------|------------------------------------------|
---9-------------|----------------|------------------------------------------|
-7---------------|----------------|------------------------------------------|
Tap to rate this tab
 
# A B C D E F G H I J K L M N O P Q R S T U V W X Y Z