Song name
# A B C D E F G H I J K L M N O P Q R S T U V W X Y Z

Apollo Sunshine - Egg tab

    --intro--

e:0~-------0--2--------2--4~-------4---5/7--9/11-: 
b:------2-----------2-----------3----------------: 
g:2--2--------2--2--------4--4---------6/7--9/11-:
d:-----------------------------------------------:
a:-----------------------------------------------:
e:-----------------------------------------------:

e:12--------12--------12-------------12------------12---:
b:------12--------12-------------12------------12-------:
g:---13--------14---------14--13--------13--14----------:
d:------------------------------------------------------:
a:------------------------------------------------------:
e:------------------------------------------------------: 

e:0~-----0-------2~-----2---(2)--4~-----4-----5/6--9/11-:
b:-----2----(2)-------2---------------3-----------------:
g:2--2-----2-----2--2------2-----4--4-----4---6/7--9/11-:
d:------------------------------------------------------:
a:------------------------------------------------------:
e:------------------------------------------------------:

e:12--------12--------12-------------12------------12---:
b:------12--------12-------------12------------12-------:
g:---13--------14---------14--13--------13--14----------:
d:------------------------------------------------------:
a:------------------------------------------------------:
e:------------------------------------------------------:



   --ending theme of song--

(starts halfway thru song approx. 1:38)

e:------12------------12----------12------------12~-----:
b:---12-----------12-----------12-----------12----------:
g:13-------13--14-------14--13-------13--14--------(12)-:
d:------------------------------------------------------:
a:------------------------------------------------------:
e:------------------------------------------------------: 

e:12-11----12-------12~----14-11-------:
b:------12-------12--------------12-10-:  --> repeat
g:------------13-------(12)------------:      (last time, move onto below:)
d:-------------------------------------:
a:-------------------------------------:
e:-------------------------------------:


   --last stanza--

e:------12-----------12-----------12-----------11-----9~~---:
b:---12-----------12-----------12-----------12--------10~---:
g:13-------13--14-------14--13-------13--11-------11--9~~---:
d:----------------------------------------------------------:
a:----------------------------------------------------------:
e:----------------------------------------------------------: 


IF YOU HAVE ADDITIONAL GUITARS:

   --variation of ending theme--
e:12-------12-------12-----------11-12-----11-12--:
b:------12-------12-----------12-------14---------:
g:---13-------14-------14--13---------------------:
d:------------------------------------------------:
a:------------------------------------------------:
e:------------------------------------------------:

e:12-11----12-------12~----14-11-------:
b:------12-------12--------------12-10-:  --> repeat
g:------------13-------(12)------------:      
d:-------------------------------------:
a:-------------------------------------:
e:-------------------------------------:

   
Tap to rate this tab
# A B C D E F G H I J K L M N O P Q R S T U V W X Y Z