Song name
# A B C D E F G H I J K L M N O P Q R S T U V W X Y Z

Apollo Sunshine - Today Is Your Day tab

                         ~=Today is Your Day=~

                              by Joseph Howell


Key: C Minor Pentatonic

              mute strings!!! 

                                                 "Well today is the day to
						 act like to....
e|-------------------------------------------------------------------------|
b|-------------------------------------------------------------------------|
g|-00-00-00-00-00-00-00-00-00-00-00-00-00-00-00-00-00-00-00-00-00-00-00-00-|
d|-22-33-22-33-22-33-22-33-22-33-22-33-22-33-22-33-22-33-22-33-22-33-22-33-|
a|-33-33-33-33-33-33-33-33-33-33-33-33-33-33-33-33-33-33-33-33-33-33-33-33-|
e|-------------------------------------------------------------------------|
    Pattern is an down up down up...etc
    ^
                                                  |
                start singing_____________________|


e|--------------------|  ( he hits that note every so often at the beg)
b|-1------------------|

  "days your day and you will be suprised That it is..That is
e|-----------------------------------------------------------------------|
b|-11-11-11-11-11-11-11-11-----------------------------------------------|
g|-22-33-22-33-22-33-22-33----------00-00-00-00-------------00-00-00-00--|
d|-33-33-33-33-33-33-33-33----------22-33-22-33-00-00-00-00-22-33-22-33--|
a|----------------------------------33-33-33-33-22-33-22-33-33-33-33-33--|
e|----------------------------------------------33-33-33-33--------------|

(Do all of the above for most of the rythm guitar in the song)




Lead guitar through most of song

e|-8-------8-----8------------------8-------8-----8--------------------|
b|-----b10---b11------6-----6----6------b10---b11------8-------8-----8-|
g|-----------------------b8---b9---------------------------b10---b11---|
d|---------------------------------------------------------------------|
a|---------------------------------------------------------------------|
e|---------------------------------------------------------------------|

( make the playing very "snappy"..listen to the song)



 F                                     C

"turn up the sun, hotter and brighter, make that yellow guy huge"

e|-1-1-1-1-1-1-1-1-1-1-1-1-1-1-1-1-1-1-8--8--8--8--8--8--8--8--8--|
b|-1-1-1-1-1-1-1-1-1-1-1-1-1-1-1-1-1-1-8--8--8--8--8--8--8--8--8--|
g|-2-2-2-2-2-2-2-2-2-2-2-2-2-2-2-2-2-2-9--9--9--9--9--9--9--9--9--|
d|-3-3-3-3-3-3-3-3-3-3-3-3-3-3-3-3-3-3-10-10-10-10-10-10-10-10-10-|
a|-3-3-3-3-3-3-3-3-3-3-3-3-3-3-3-3-3-3-10-10-10-10-10-10-10-10-10-|
e|-1-1-1-1-1-1-1-1-1-1-1-1-1-1-1-1-1-1-8-8-8-8-8-8-8-8-8-8-8-8-8--|

 F                                             C

"the bigger the hotter the wetter the better it issss..."

e|-1-1-1-1-1-1-1-1-1-1-1-1-1-1-1-1-1-1-1-1-1-1---8--8--8--8--8--8-|
b|-1-1-1-1-1-1-1-1-1-1-1-1-1-1-1-1-1-1-1-1-1-1---8--8--8--8--8--8-|
g|-2-2-2-2-2-2-2-2-2-2-2-2-2-2-2-2-2-2-2-2-2-2---9--9--9--9--9--9-|
d|-3-3-3-3-3-3-3-3-3-3-3-3-3-3-3-3-3-3-3-3-3-3--10-10-10-10-10-10-|
a|-3-3-3-3-3-3-3-3-3-3-3-3-3-3-3-3-3-3-3-3-3-3--10-10-10-10-10-10-|
e|-1-1-1-1-1-1-1-1-1-1-1-1-1-1-1-1-1-1-1-1-1-1---8-8-8--8-8-8-8-8-|




Beg of Solo                                  The rest just use C minor pentatonic scale

e|--8--------------11-10-8--11-10-8--------|
b|----b11---b11----------------------------|
g|--------8-----8--------------------------|
d|-----------------------------------------|
a|-----------------------------------------|
e|-----------------------------------------|







                      ~=Spread the Sunshine My Friends=~


                        http://www.apollosunshine.com/
Tap to rate this tab
# A B C D E F G H I J K L M N O P Q R S T U V W X Y Z