Song name
# A B C D E F G H I J K L M N O P Q R S T U V W X Y Z

Apollo Sunshine - Phyliss tab

Song Name: Phyliss
Band : Apollo Sunshine
tabbed by mike lapoint

For this song you need to drop the tuning of the last string all the way down to A-1     
(e, b, g, d , a ,a-1)

E-------2-2-3--2--------------------------------------------|
B------------------5-5-5-5-5-5--3-2--2-2----2--3--2--0------|
G-----------------------------------------------------------|
D-----------------------------------------------------------|
A--0-~--------------------------------------------------0-~-|
A--0-~--------------------------------------------------0-~-|

im gunna drink alot of water
rinse a few things out

E---------------------|
B---------------------|
G-----0-----0---------|
D--2-----2-----2------|
A---------------------|
A---------------------|

E----------2--2--2--2--2-----------5--5--5--5--5-----------|
B-------3-----3--3--3--3--------6-----6--6--6--6-----------|
G----2--------2--2--2--2-----5--------5--5--5--5-----------|
D-4-----------4--4--4--4--7-----------7--7--7--7-----------|
A--------------------------------------------------0-~-----|
A--------------------------------------------------0-~-----|

E-------------------------------|
B-------------------------------|
G-------------------------------|
D-------------------------------|
A--0-/-12---10----7---5---0-~---|
A--0-/-12---10----7---5---0-~---|

E---------------------------------------------------|
B---------------------------------------------------|
G--9--9--7--6--4---6---2~--/-9---9--7---6---2-------|
D---------------------------------------------------|
A---------------------------------------------------|
A---------------------------------------------------|
guitar (clean)^

e|--------------------------------------------------------------|
B|-------------------7--7-x--7--7-x-7--7-x--7--7-x--------------|
G|-------------------7--7-x--7--7-x-7--7-x--7--7-x--------------|
D|-------------------7--7-x--7--7-x-7--7-x--7--7-x--------------|
A|--0---2--0---4--0--5--5-x--5--5-x-5--5-x--5--5-x--------------|
A|--0---2--0---4--0---------------------------------------------|
Tap to rate this tab
# A B C D E F G H I J K L M N O P Q R S T U V W X Y Z