Song name
# A B C D E F G H I J K L M N O P Q R S T U V W X Y Z

Apologetix - Corinthians tab

Aight this is the intro 4 corinthians it sounds like
piano sounds cool on guitar.
----------------------------------------------------------------------------
	Corinthians(in the end)- Apologetix(linkin Park)
----------------------------------------------------------------------------
Tabbed by:wolfpacbravo
Email:Yeah ryt

Tuning:standard

e|--------------------------------------------------------------------------|
B|--------------------------------------------------------------------------|
G|-------9-9----------------------------------------------------------------|
D|----7------10--9-9-9--9h10p7----------------------------------------------|
A|--------------------------------------------------------------------------|
E|--------------------------------------------------------------------------|
OR
e|--------------------------------------------------------------------------|
B|--------------------------------------------------------------------------|
G|--------------------------------------------------------------------------|
D|-----------9-9------------------------------------------------------------|
A|--------7------10-9-9-9-9h10p7--------------------------------------------|
E|--------------------------------------------------------------------------|
You can also just pick each note.Either way it sounds good.
Tap to rate this tab
# A B C D E F G H I J K L M N O P Q R S T U V W X Y Z