Song name
# A B C D E F G H I J K L M N O P Q R S T U V W X Y Z

Apoptygma Berzerk - You Keep Me From Breaking Apart tab

Help us improve GuitareTab! Take a short survey!
intro solo:

e|---1---------------1-------------------------------------------------------|
B|---------------------------------------------------------------------------|
G|------3---2---3-------3---2--3--0------------------------------------------|
D|---------------------------------------------------------------------------|
A|---------------------------------------------------------------------------|
E|---------------------------------------------------------------------------|


chorus solo:

e|---------------------------------------------------------------------------|
B|--------------------------------------------------------1-1-1-1------------|
G|---0---0-3-0---0----0---0-3-0---3---3-3-3-3-3-3-----------------3-3--------|
D|-----3-------3--------3-------3-----------------1-1-1-1--------------------|
A|---------------------------------------------------------------------------|
E|---------------------------------------------------------------------------|
Related for You Keep Me From Breaking Apart tab