Song name
# A B C D E F G H I J K L M N O P Q R S T U V W X Y Z

Apostle Of Hustle - Chances Are tab

Apostle of Hustle
Chances Are
National Anthem of Nowhere

Strumming not shown 100%. 

Tabbed from: http://www.youtube.com/watch?v=v1Vqy34WEhE

Tuning:Standard

Intro 3x...strumming not shown
e|-2-----------------------------------------------------------------------|
B|-2-------------2-4-------------------------------------------------------|
G|-4-------------4-4-------------------------------------------------------|
D|-4-------------4-4-------------------------------------------------------|
A|-2-----------------------------------------------------------------------|
E|-------------------------------------------------------------------------|

Verse...strum
   Drunk                            Smashed
e|-0-----------------------------------2-----------------------------------|
B|-0-----------------------------------2-----------------------------------|
G|-1-----------------------------------4-----------------------------------|
D|-2-----------------------------------4-----------------------------------|
A|-2-----------------------------------2-----------------------------------|
E|-------------------------------------------------------------------------|

Pre Chorus x2
e|-------------------------------------------------------------------------|
B|-14-x-14-x-14-x-x-14-14-x-x-14-x-14-x-14-14-14-14------------------------|
G|-13-x-13-x-13-x-x-15-15-x-x-16-x-16-x-16-15-15-15-13---------------------|
D|-14-x-14-x-14-x-x-14-14-x-x-14-x-14-x-14-14-14-14-14---------------------|
A|-------------------------------------------------------------------------|
E|-------------------------------------------------------------------------|

Chorus..strumming not shown

  Goodbye  Are     -ever          
e|-7--------6--------4---------6-------------------------------------------|
B|-7--------7--------5---------7-------------------------------------------|
G|-8--------8--------6---------8-------------------------------------------|
D|-9--------8--------6---------8-------------------------------------------|
A|-9--------6--------4---------6-------------------------------------------|
E|-7--------6--------4---------6-------------------------------------------|

Intro


Pieces before 2nd verse
e|-0----------------------2------------------------------------------------|
B|-0-0-2-0----------------2------------------------------------------------|
G|-1-------3-1-4-1-1------4--3-4-3-----------------------------------------|
D|-2-----------------2----4--------6-4-4\1---------------------------------|
A|-2-------------------2--2----------------2-------------------------------|
E|-0-----------------------------------------------------------------------|

Verse

Pre chorus 

Chorus


Bridge before final chorus... strumming not shown
e|-7------------7--------------2-------------------------------------------|
B|-7------------7--------------2-------------------------------------------|
G|-8------------8--------------4-------------------------------------------|
D|-9----------8/9------------3/4-------------------------------------------|
A|-9----------8/9------------3/2-------------------------------------------|
E|-7----------6/7------------1/2-------------------------------------------|

Final chorus

  
e|-0--------2---------7----------------------------------------------------|
B|-0--------2---------7----------------------------------------------------|
G|-1--------4---------8----------------------------------------------------|
D|-2--------4---------9----------------------------------------------------|
A|-2--------2---------9----------------------------------------------------|
E|-0------------------7----------------------------------------------------|

| /  slide up
| \  slide down
| h  hammer-on
| p  pull-off
| ~  vibrato
| +  harmonic
| x  Mute note
===============================================================================
Tap to rate this tab
 
# A B C D E F G H I J K L M N O P Q R S T U V W X Y Z