Song name
# A B C D E F G H I J K L M N O P Q R S T U V W X Y Z

Apostle Of Hustle - National Anthem Of Nowhere tab

Help us improve GuitareTab! Take a short survey!
Apostle of Hustle
National Anthem of Nowhere
National Anthem of Nowhere

Tabbed from the Harbourfront 2004 Broken Social Scene show
and BSS @ Ottawa Folk Fest video 2004

This tab really is how Andrew played it with BSS before it became a single on the new 
of Hustle album.  The arrangement is slightly different.


Tuning:Standard

Note: strumming is not shown...just strum each up and down and listen for the timing

Figure 1
intro/ verse
e|-------------------------------------------------------------------------|
B|-----------------5-------------------------------------------------------|
G|-7-------6-------x-------------------------------------------------------|
D|-x-------x-------5-------------------------------------------------------|
A|-x-------x-------7-------------------------------------------------------|
E|-7-------5---------------------------------------------------------------|

Verse cont.
e|-------------------------------------------------------------------------|
B|-------------------------------------------------------------------------|
G|-7----6---4----6---4-----------------------------------------------------|
D|-x----x---x----x---x-----------------------------------------------------|
A|-x----x---x----x---x-----------------------------------------------------|
E|-7----5---3----5---3-----------------------------------------------------|

Figure 2 Part after each of the 2 verses (trumpet part..not on album version)
e|-------------------------------------------------------------------------|
B|-7-----------------------------------------------------------------------|
G|-x---7---9---4-----------------------------------------------------------|
D|-7---x---x---x-----------------------------------------------------------|
A|-9---x---x---x-----------------------------------------------------------|
E|-----7---9---3-----------------------------------------------------------|

Figure 3
e|-------------------------------------------------------------------------|
B|-------------------------------------------------------------------------|
G|-7---6----9---11--------7----6----9-----2--------------------------------|
D|-x---x----x----x--------x----x----x-----x--------------------------------|
A|-x---x----x----x--------x----x----x-----x--------------------------------|
E|-7---5----9---10--------7----5----9-----2--------------------------------|

3.5 this can be played along with fig 3.
e|-------------------------------------------------------------------------|
B|-----------------10-------10----10-------10------------------------------|
G|-/7-7-6-6-9-9-11----11-11----11----11-11----/7-7-6-6-9-9-2-2-2-2-2-------|
D|-----------------------------------------------------------x-x-x-x-------|
A|-----------------------------------------------------------x-x-x-x-------|
E|-----------------------------------------------------------2-2-2-2-------|


Brigde...Its the part where I THINK he is saying "stay strong...."

e|-------------------------------------------------------------------------|
B|-------------------------------------------------------------------------|
G|--9-------11-------9------11------9--------------------------------------|
D|--x--------x-------x-------x------x--------------------------------------|
A|--x--------x-------x-------x------x--------------------------------------|
E|--8-------10-------8------10------8--------------------------------------|

The long outro live is played with
fig. 3.5 tremelo picking throughout.

This is almost exactly how he plays it live after watching the Ottawa Folk Fest video.  
you have trouble playing, it is probably b/c of my lack of strumming info and timming.
Related for National Anthem Of Nowhere tab