Song name
# A B C D E F G H I J K L M N O P Q R S T U V W X Y Z

Appendix - Huora tab

Appendix - Huora (EP:ltä Huora, 1983)

www.appendix.fi

----------------------------------------------------------------------------

Alussa vaan hakatataan tota mistä se lähtee.

E |--------------------------------------------------------------------|
H |--------------------------------------------------------------------|
G |--------------------------------------------------------------------|
D |-7-7-7-7-7-7-7-7-10-10-10-9-9-9-7-7---------------------------------|
A |-5-5-5-5-5-5-5-5--8--8--8-7-7-7-5-5-8-8-8-8-8-8-8-8-5-5-5-5-5-5-5-5-|
E |------------------------------------6-6-6-6-6-6-6-6-3-3-3-3-3-3-3-3-|


Laulun kanssa:

E |-----------------------------------------------------------------|
H |-----------------------------------------------------------------|
G |-----------------------------------------------------------------|
D |-7-7-7-7-7-7-7-7-7-7-7-7-7-7-7-7---------------------------------|
A |-5-5-5-5-5-5-5-5-5-5-5-5-5-5-5-5-8-8-8-8-8-8-8-8-5-5-5-5-5-5-5-5-|
E |---------------------------------6-6-6-6-6-6-6-6-3-3-3-3-3-3-3-3-|


Kertsi:

E |-----------------------------------------------------------------|
H |-----------------------------------------------------------------|
G |-----------------------------------------------------------------|
D |---------------------------------2-2-2-2-2-2-2-2-----------------|
A |-2-2-2-2-2-2-2-2-2-2-2-2-2-2-2-2-0-0-0-0-0-0-0-0-5-5-5-5-5-5-5-5-|
E |-0-0-0-0-0-0-0-0-0-0-0-0-0-0-0-0-----------------3-3-3-3-3-3-3-3-|

Muuta tässä ei sit oikeastaan ookkaan.
Tap to rate this tab
# A B C D E F G H I J K L M N O P Q R S T U V W X Y Z