Song name
# A B C D E F G H I J K L M N O P Q R S T U V W X Y Z

Appendix - Ei Raha Oo Mun Valuuttaa tab

Help us improve GuitareTab! Take a short survey!
E |----------------|
H |----------------|
G |----------------|
D |-9-9--9-12-11-7-|
A |-7-7--7-10--9-5-|
E |----------------|


Kertsi:

E |---------------------------|
H |---------------------------|
G |---------------------------|
D |-5-5-5-7-7-7-9-9-9-12-11-7-|
A |-3-3-3-5-5-5-7-7-7-10--9-5-|
E |---------------------------|

www.appendix.com
Related for Ei Raha Oo Mun Valuuttaa tab