Song name
# A B C D E F G H I J K L M N O P Q R S T U V W X Y Z

Appleseed Cast - Ice Heavy Branches tab

So This Is My First Guitar Tab
I Know it is not perfect but i tried my best.
Hope You Enjoy
p.s.- On The Little Arpeggio part i have found it helps to sweep it. 

MxRob15

The Appleseed Cast-Ice Heavy Branches

E-----------------|-----------------|-----------------|-----------------|
B-----------------|-----------------|-----------------|-----------------|
G-----------------|-----------------|-----------------|-----------------|
D--14-12-16-------|--14-12-16-14-16-|-14--12--16------|-----------------|
A-----------------|-----------------|-----------------|-----------------|
E-----------------|-----------------|-----------------|-----------------|

E-----------------|-----------------|-----------------|-----------------|
B---------------15|-----------------|---------------15|-----------------|
G------------16---|-----------------|------------16---|-----------------|
D---------16------|-----------------|---------16------|-----------------|
A-14-h-17---------|----14----12--14-|-14-h-17---------|-14---12----14---|
E-----------------|-----------------|-----------------|-----------------|

E-----------------|-----------------|-----------------|-----------------|
B---------------15|-----------------|---------------15|-----------------|
G------------16---|-----------------|-------------16--|-----------------|
D---------16------|-----------------|---------16------|-----------------|
A-14-h-17---------|----14----12--14-|-14-h-17---------|-14---12----14---|
E-----------------|-----------------|-----------------|-----------------|

E-----------------|-----------------|-----------------|-----------------|
B---------------15|-----------------|---------------15|-----------------|
G------------16---|-----------------|-------------16--|-----------------|
D---------16------|-----------------|---------16------|-----------------|
A-14-h-17---------|----14----12--14-|-14-h-17---------|-14---12----14---|
E-----------------|-----------------|-----------------|-----------------|

E-----------------|-----------------|-----------------|-----------------|
B---------------15|-----------------|---------------15|-----------------|
G------------16---|-----------------|-------------16--|-----------------|
D---------16------|-----------------|---------16------|-----------------|
A-14-h-17---------|----14----12--14-|-14-h-17---------|-14---12----14---|
E-----------------|-----------------|-----------------|-----------------|

E-----------------|-----------------|-----------------|-----------------|
B-----------------|-----------------|-----------------|-----------------|
G-----------------|-----------------|-----------------|-----------------|
D--14-12-16-------|--14-12-16-14-16-|-14--12--16------|-----------------|
A-----------------|-----------------|-----------------|-----------------|
E-----------------|-----------------|-----------------|-----------------|

E-----------------|-----------------|-----------------|-----------------|
B-----------------|-----------------|-----------------|-----------------|
G-----------------|-----------------|-----------------|-----------------|
D--14-12-16-------|--14-12-16-14-16-|-14--12--16------|-----------------|
A-----------------|-----------------|-----------------|-----------------|
E-----------------|-----------------|-----------------|-----------------|

E-----------------|-----------------|-----------------|-----------------|
B-----------------|-----------------|-----------------|-----------------|
G-----------------|-----------------|-----------------|-----------------|
D--14-12-16-------|--14-12-16-14-16-|-14--12--16------|-----------------|
A-----------------|-----------------|-----------------|-----------------|
E-----------------|-----------------|-----------------|-----------------|

E-----------------|-----------------|-----------------|-----------------|
B-----------------|-----------------|-----------------|-----------------|
G-----------------|-----------------|-----------------|-----------------|
D--14-12-16-------|--14-12-16-14-16-|-14--12--16------|-----------------|
A-----------------|-----------------|-----------------|-----------------|
E-----------------|-----------------|-----------------|-----------------|

E-----------------|-----------------|-----------------|-----------------|
B---------------15|-----------------|---------------15|-----------------|
G------------16---|-----------------|-------------16--|-----------------|
D---------16------|-----------------|---------16------|-----------------|
A-14-h-17---------|----14----12--14-|-14-h-17---------|-14---12----14---|
E-----------------|-----------------|-----------------|-----------------|

E-----------------|-----------------|-----------------|-----------------|
B---------------15|-----------------|---------------15|-----------------|
G------------16---|-----------------|-------------16--|-----------------|
D---------16------|-----------------|---------16------|-----------------|
A-14-h-17---------|----14----12--14-|-14-h-17---------|-14---12----14---|
E-----------------|-----------------|-----------------|-----------------|

E-----------------|-----------------|-----------------|-----------------|
B-----------------|-----------------|-----------------|-----------------|
G-----------------|-----------------|-----------------|-----------------|
D--14-12-16-------|--14-12-16-14-16-|-14--12--16------|-----------------|
A-----------------|-----------------|-----------------|-----------------|
E-----------------|-----------------|-----------------|-----------------|

E-----------------|-----------------|-----------------|-----------------|
B-----------------|-----------------|-----------------|-----------------|
G-----------------|-----------------|-----------------|-----------------|
D--14-12-16-------|--14-12-16-14-16-|-14--12--16------|-----------------|
A-----------------|-----------------|-----------------|-----------------|
E-----------------|-----------------|-----------------|-----------------|

E-----------------|-----------------|-----------------|-----------------|
B-----------------|-----------------|-----------------|-----------------|
G-----------------|-----------------|-----------------|-----------------|
D--14-12-16-------|--14-12-16-14-16-|-14--12--16------|-----------------|
A-----------------|-----------------|-----------------|-----------------|
E-----------------|-----------------|-----------------|-----------------|

E-----------------|-----------------|-----------------|-----------------|
B-----------------|-----------------|-----------------|-----------------|
G-----------------|-----------------|-----------------|-----------------|
D--14-12-16-------|--14-12-16-14-16-|-14--12--16------|-----------------|
A-----------------|-----------------|-----------------|-----------------|
E-----------------|-----------------|-----------------|-----------------|

E-------15--------|-----14----------|------12---------|------10---------|
B-----------------|-----------------|-----------------|-----------------|  x 12
G-----------------|-----------------|-----------------|-----------------|
D-----------------|-----------------|-----------------|-----------------|
A-----------------|-----------------|-----------------|-----------------|
E-----------------|-----------------|-----------------|-----------------|


E-----------------|-----------------|-----------------|-----------------|
B---------------15|-----------------|---------------15|-----------------|
G------------16---|-----------------|-------------16--|-----------------|
D---------16------|-----------------|---------16------|-----------------|
A-14-h-17---------|----14----12--14-|-14-h-17---------|-14---12----14---|
E-----------------|-----------------|-----------------|-----------------|

E-----------------|-----------------|-----------------|-----------------|
B---------------15|-----------------|---------------15|-----------------|
G------------16---|-----------------|-------------16--|-----------------|
D---------16------|-----------------|---------16------|-----------------|
A-14-h-17---------|----14----12--14-|-14-h-17---------|-14---12----14---|
E-----------------|-----------------|-----------------|-----------------|

E-----------------|-----------------|-----------------|-----------------|
B---------------15|-----------------|---------------15|-----------------|
G------------16---|-----------------|-------------16--|-----------------|
D---------16------|-----------------|---------16------|-----------------|
A-14-h-17---------|----14----12--14-|-14-h-17---------|-14---12----14---|
E-----------------|-----------------|-----------------|-----------------|

E-----------------|-----------------|-----------------|-----------------|
B-----------------|-----------------|-----------------|-----------------|
G-----------------|-----------------|-----------------|-----------------|
D--14-12-16-------|--14-12-16-14-16-|-14--12--16------|-----------------|
A-----------------|-----------------|-----------------|-----------------|
E-----------------|-----------------|-----------------|-----------------|

E-----------------|-----------------|-----------------|-----------------|
B-----------------|-----------------|-----------------|-----------------|
G-----------------|-----------------|-----------------|-----------------|
D--14-12-16-------|--14-12-16-14-16-|-14--12--16------|-----------------|
A-----------------|-----------------|-----------------|-----------------|
E-----------------|-----------------|-----------------|-----------------|

E-----------------|-----------------|-----------------|-----------------|
B-----------------|-----------------|-----------------|-----------------|
G-----------------|-----------------|-----------------|-----------------|
D--14-12-16-------|--14-12-16-14-16-|-14--12--16------|-----------------|
A-----------------|-----------------|-----------------|-----------------|
E-----------------|-----------------|-----------------|-----------------|

E-----------------|-----------------|-----------------|-----------------|
B-----------------|-----------------|-----------------|-----------------|
G-----------------|-----------------|-----------------|-----------------|
D--14-12-16-------|--14-12-16-14-16-|-14--12--16------|-----------------|
A-----------------|-----------------|-----------------|-----------------|
E-----------------|-----------------|-----------------|-----------------|

E-------15--------|-----14----------|------12---------|------10---------|
B-----------------|-----------------|-----------------|-----------------|  x 12
G-----------------|-----------------|-----------------|-----------------|
D-----------------|-----------------|-----------------|-----------------|
A-----------------|-----------------|-----------------|-----------------|
E-----------------|-----------------|-----------------|-----------------|


E---------10------|-----------------|-----------------|-----------------|
B-----------------|-----------------|-----------------|-----------------| 
G-----------------|-----------------|-----------------|-----------------|
D-----------------|-----------------|-----------------|-----------------|
A-----------------|-----------------|-----------------|-----------------|
E-----------------|-----------------|-----------------|-----------------|
Tap to rate this tab
# A B C D E F G H I J K L M N O P Q R S T U V W X Y Z