Guitaretab - guitar tabs
Song name
# A B C D E F G H I J K L M N O P Q R S T U V W X Y Z

Appleseed Cast - Page tab

I'll make this simple;
The other version made of this song is incorrect, the first guitar is correct but the 
on guitar 2 are wrong.

This is the correct tab.

Guitar 1
Verse
e ---------------------------------|
b ---------------------------------|
g ---------------------------------|
d -5-5-5-5-5-5-5-5-5-5-5-5-5-5-5-5-|
a -5-5-5-5-5-5-5-5-5-5-5-5-5-5-5-5-|
e -3-3-3-3-3-3-3-3-0-0-0-2-2-2-2-2-|
[ Tab from: http://www.guitaretab.com/a/appleseed-cast/151319.html ]
Guitar 2
Fill 1 [4x's]
e ---------------------|
b ---------------------|
g ---4-74--0---0----0--|
d -5--5---5--2---4-4-4-|
a ---------------------|
e ---------------------|

Guitar 1
Chorus
e ---------------------------------|
b ---------------------------------|
g ---------------------------------|
d -5-5-5-5-5-5-5-5-5-5-5-5-5-5-5-5-|
a -5-5-5-5-5-5-5-5-5-5-5-5-5-5-5-5-|
e -5-5-5-5-5-5-5-5-3-3-3-3-3-3-3-3-|

Guitar 2
Fill 2 [2x's]
e ------------------------|
b ------------------------|
g -----9----4-------4--4--|
d -5s7--5-7--7-9-5-5--5-5-|
a ------------------------|
e ------------------------|

It's that easy.

Any Questions / Complains
AIM: xIshbarQx
GMAIL: Ishbar@gmail.com
Related for Page tab