Song name
# A B C D E F G H I J K L M N O P Q R S T U V W X Y Z

Appleseed Cast - Poseidon tab

Help us improve GuitareTab! Take a short survey!
-------------------------------------------------------------------------------
			     POSEIDON - Appleseed Cast
-------------------------------------------------------------------------------
Tabbed by: ksmalls
Email: pakm17@yahoo.com

Tuning: Standard

This probably isn't 100% but its close enough. I can't tell what the second
guitar is playing for the intro, theres too much delay to tell! If you any 
let me know and I will gladly fix them. Whoever did the
"Forever Longing" and "Fishing the Sky" GPro tabs, if your listening, you should see if 
can figure this song out!

Listen to the song for timing etc.

Intro

Guitar 1
e|----------------------------------------------------------------------|
B|--5-------------5-------------------------------------5---------------|
G|--5-------5---------5---------5-----------------5---------5-4x16------| X4
D|--7---7-----7-----7-------7-----7---5-5-----5-----5-----7-------------|
A|--8-----8-----8---------8---8-----8-------7---7-----7-----------------|
E|----------------------------------------------------------------------|

Verse?

Guitar 1
e|---------------------------------|
B|---------------------------------|
G|---55-4-55-55-4-55---------------|
D|-----4----4--4----4------repeat--|
A|---------------------------------|
E|---------------------------------|

Guitar 2
e|---------------------------|
B|---5-3---5-----5-3---6-5---|
G|-------5---5-------5-------|
D|---------------------------|
A|---------------------------|
E|---------------------------|
Related for Poseidon tab