Guitaretab - guitar tabs
Song name
# A B C D E F G H I J K L M N O P Q R S T U V W X Y Z

Appleseed Cast - Fishing The Sky tab

-------------------------------------------------------------------------------
			     FISHING THE SKY - The Appleseed Cast
-------------------------------------------------------------------------------
Tabbed by: A.J. Conner
Email: ajconner123@gmail.com

Tuning: Guitar 1: Standard, Capo 4th Fret (Numbers relative to capo)
        Guitar 2: Standard, No Capo.

Intro Riff 1 (Guitar 1):                 Intro Riff 2 (Guitar 1):
e|--------------------------------------|-------------------------------------|
B|o-0---0--3\1-0--0---0----------------o|o------0------------0---------------o|
G|--4\2-0--0---0--4\2-0--0---0-0---0-0--|---------5------------0--------------|
D|o----------------------4h5---5p4-0---o|o---0------0-----0------0-----------o|
A|--------------------------------------|--3----------3-2----------2----------|
E|--------------------------------------|-------------------------------------|

e|-----------------------------||
B|-------0-----------0--------o||
G|-----5---0-----------0---0---||
D|-----------0-----0-----0----o||
A|-------------0---------------||
E|--5------------3-------------||

Intro Riff 1 (Guitar 2):                 Intro Riff 2 (Guitar 2):
e|--------------------------------------|-------------------------------------|
B|o--12-----14--11--12-----------------o|o--------12--------------12---------o|
G|--------------------------------------|------11----11--11----11----11---11--|
D|o------------------------------------o|o--14---------14---13---------13----o|
A|--------------------------------------|-------------------------------------|
E|--------------------------------------|-------------------------------------|
 
e|-----------------------------||
B|--------12------------------o||
G|-----11----11-----(Rest)-----||
D|--11---------11-------------o||
A|-----------------------------||
E|-----------------------------||

Interlude 1 (Guitar 1):
e|------------------------|
B|o-1----0----1----0-----o|
G|--0----0----0----0------|
D|o-0----x----0----0-----o|
A|--3----2----0----x------|
E|-----------------3------|

Interlude 1 (Guitar 2):
e|---------------------------------------------------------------------------|
B|o-12--12--12--12--12--12--12--12--12--12--12--12--12--12--12--12----------o|
G|---------------------------------------------------------------------------|
D|o---14--14--14--14--14--14--14--14--14--14--14--14--14--14--14--14--------o|
A|---------------------------------------------------------------------------|
E|---------------------------------------------------------------------------|
[ Tab from: http://www.guitaretab.com/a/appleseed-cast/177409.html ]
Pre-verse: (GUITAR 1 PLAYS INTRO RIFF 1)

Pre-verse (Guitar 2):
e|------------------------|
B|o----------------------o|
G|------------------------|
D|o-9------2---4---------o|
A|--9------2---4----------|
E|--7------0---2----------|

Verse; (BOTH GUITARS PLAY INTRO RIFF 2)

Interlude 2 (Guitar 1):
e|---------------------------------------------------------------------------|
B|o-------------------------------------------------------------------------o|
G|----0---0---0---0---2---2---2---2---2---2---0---0---0---0---0---0----------|
D|o-0---0---0---0---0---0---0---0---4---4---4---4---2---2---2---2-----------o|
A|---------------------------------------------------------------------------|
E|---------------------------------------------------------------------------|

Interlude 2 (Guitar 2):
e|---------------------------------------------------------------------------|
B|o--12--12--12--12--12--14--14--14--11--11--11--11--11--12--12--12---------o|
G|---------------------------------------------------------------------------|
D|o-------------------------------------------------------------------------o|
A|---------------------------------------------------------------------------|
E|---------------------------------------------------------------------------|

Chorus (Guitar 1): 
e|---------------------------------------------------------------------------|
B|--0---0------0---0---0---0---0------0---0----------------------------------|
G|--0---0------0---0---0---0---0------0---0----------------------------------|
D|--0---0------0---0---0---2---2------2---2----------------------------------|
A|--x---x------x---x---x---2---2------2---2----------------------------------|
E|--3---3------3---3---2---0---0------0---0----------------------------------|

Chorus (Guitar 2):                   
e|---------------------------------------------------------------------------|
B|---------------------------------------------------------------------------|
G|---------------------------------------------------------------------------|
D|--9---9------9---9---9---6---6------6---6----------------------------------|
A|--9---9------9---9---9---6---6------6---6----------------------------------|
E|--7---7------7---7---6---4---4------4---4----------------------------------|

Interlude 3 (BOTH GUITARS PLAY INTERLUDE 2 RIFF)

Ending: Repeat Repeat Pre-Verse, Verse and Interlude 1. 

That's it! Good Luck :)


| /  slide up
| \  slide down
| h  hammer-on
| p  pull-off
| ~  vibrato
| +  harmonic
| x  Mute note
===============================================================================
Related for Fishing The Sky tab