Song name
# A B C D E F G H I J K L M N O P Q R S T U V W X Y Z

Appleseed Cast - Forever Longing The Golden Sunsets tab

-------------------------------------------------------------------------------
          FOREVER LONGING THE GOLDEN SUNSETS - The Appleseed Cast
-------------------------------------------------------------------------------
Tabbed by: A.J. Conner
Email: ajconner123@gmail.com

Tuning: Standard CAPO 4th FRET, all fret numbers relative to capo.

  
                                       Guitar One - Main Riff
Guitar One - Riff One               |---------Palm-Mute---------|
e|--3--------3--------0--------0---------------------------------------------|
B|--0--------0--------0--------1---------------------------------------------|
G|--0--------0--------0--------0------0-0-0-0-0-0-0-0-0-0-0-2-2-4-4-0--------|
D|--0--------0--------2--------2------2-2-2-2-2-2-2-0-0-0-0-0-0-0-0-0--------|
A|--2--------2--------2--------3---------------------------------------------|
E|--3--------3--------0------------------------------------------------------|

  Guitar One- Post Verse Riff
e|---------------------------------------------------------------------------|
B|------3--------3--------0---------1----------------------------------------|
G|------0--------0--------0---------0----------------------------------------|
D|------0--------0--------2---------2----------------------------------------|
A|-----------------------------3-3--3----------------------------------------|
E|--3-3---3--2-2---2--0-0---0------------------------------------------------|

 Then: Repeat Main Riff and Post-Riff for the 2nd verse.
 Then: Play Riff One for the chorus.
 Then: Play another verse.
 Then: Chorus again.

  Interlude time! Play this a few times (interlude riff one).
e|---------------------------------------------------------------------------|
B|---------------------------------------------------------------------------|
G|---------------------------------------------------------------------------|
D|--5-5-5-5-5-5-5-5-5-5-5-7-7-9-9-5------------------------------------------|
A|--x-x-x-x-x-x-x-x-x-x-x-x-x-x-x-x------------------------------------------|
E|--3-3-3-3-3-3-3-3-3-3-3-5-5-7-7-3------------------------------------------|

  Play this for the "I promised you..." part; if it gets repetitive you can
  change to E minor at "The fair in the park..." and then to C at "...is 
  never gone."
e|---------------------------------------------------------------------------|
B|---------------------------------------------------------------------------|
G|---------------------------------------------------------------------------|
D|--5-5-5-5-5-5-5-5-5-5-5-5-5-5-5-5-5-5-5------------------------------------|
A|--x-x-x-x-x-x-x-x-x-x-x-x-x-x-x-x-x-x-x------------------------------------|
E|--3-3-3-3-3-3-3-3-3-3-3-3-3-3-3-3-3-3-3------------------------------------|
 
  For the break I'm pretty sure Guitar One just rests, but you can play 
  the main riff if you want. Then there's another breakdown, in which you
  just play the first interlude riff.
 
  NOW:
  Here are all of Guitar 2's corresponding parts!
   
   Guitar Two - Main Riff             Guitar Two - Verse Riff
e|--------------------------------------0-------0----------------------------|
B|--8-7-5-0------------------------------------------------------------------|
G|----------5-7-5-0-------------------0---0---0---0--------------------------|
D|----------------------------------7-------7--------------------------------|
A|---------------------------------------------------------------------------|
E|---------------------------------------------------------------------------|

  Guitar Two - Post-verse Riff
e|-----0~---0~-------8~-7~----------0~----------8~-7~------------------------|
B|------------------------8~-------------------------8~----------------------|
G|-------------0~----------------------0~------------------------------------|
D|--7~--------------------------7~-------------------------------------------|
A|---------------------------------------------------------------------------|
E|---------------------------------------------------------------------------|
  
  Post-verse Riff Variation:
e|----------0~--------8~-7~-----------0~-----8~-7~---------------------------|
B|-------------------------8~---------------------8~-------------------------|
G|------0~------0~-----------------------0~----------------------------------|
D|--7~-----------------------------7~----------------------------------------|
A|---------------------------------------------------------------------------|
E|---------------------------------------------------------------------------|
  
  Then: Play Verse Riff and Post-verse Riff for the 2nd verse.
  Then: Play the Main Riff for the chorus.
  Then: Play another verse.
  Then: Chorus again. 
           
  Guitar Two - Interlude Solo (note: the amount of times each note is played is 
  not exact; I'm not tabbing all those freaking notes out haha):
e|---------------------------------------7-7-7-7-7-10-10-10-8-8-8-8-8-8~-----|
B|---7-7-7-7-7-7-7-8-8-8-7-7-7-7-7-8-8-8-8-8-8-8-8--8--8--8------------------|
G|---------------------------------------------------------------------------|
D|---------------------------------------------------------------------------|
A|---------------------------------------------------------------------------|
E|---------------------------------------------------------------------------|
  Slower Solo:
e|--7~----------8-7~---------------------------------------------------------|
B|------8~-7~---------8~-7~--------------------------------------------------|
G|---------------------------------------------------------------------------|
D|---------------------------------------------------------------------------|
A|---------------------------------------------------------------------------|
E|---------------------------------------------------------------------------|

  For the ending breakdown just play the same lead as the interlude solo.
  The last note is a fuzzed out one:
e|--10~-----------|
B|----------------|
G|----------------|
D|----------------|
A|----------------|
E|----------------|

That is all folks. Enjoy it, I worked my ass off on this one.
Also, email me with corrections/complaints. 
THANKS!


| /  slide up
| \  slide down
| h  hammer-on
| p  pull-off
| ~  delay
| +  harmonic
| x  Mute note
===============================================================================
Tap to rate this tab
# A B C D E F G H I J K L M N O P Q R S T U V W X Y Z