Song name
# A B C D E F G H I J K L M N O P Q R S T U V W X Y Z

Appleseed Cast - Hello Dearest Love tab

-------------------------------------------------------------------------------
                   HELLO DEAREST LOVE - The Appleseed Cast
-------------------------------------------------------------------------------
Tabbed by: A.J. Conner
Email: ajconner123@gmail.com

I am not sure if this is exactly how the guitarist plays this, but the notes
all sound right to me. Please email me or comment if you have any corrections,
I would love to hear them.

Tuning: Standard, CAPO 4TH FRET, all fret numbers relative to capo.
*Note: I figured this song out when my high E string was broken, which is why
you won't see it used at all in the song.

Try and let all the open strings ring out when you play them. 
 
 This intro with the keyboard I transcribed for guitar.
e|---------------------------------------------------------------------------|
B|--3---------------------------------------8--------------------------------|
G|--0---0---2---0------------------------------------------------------------|
D|--0-------------2----------------------------------------------------------|
A|--2------------------------------------------------------------------------|
E|--3------------------------------------------------------------------------|

  Guitar starts here, play this riff as many times as you like.
e|---------------------------------------------------------------------------|
B|-(7)----0-----------------0---------------------0----------------0---------|
G|-----0-------0---------------------0--------------------0-------------0----|
D|-------------------10--------10-------10--9-------9------(7)-7------7---7--|
A|--7-------7-----9------9--------9-----------10------10----9----9-----------|
E|---------------------------------------------------------------------------|

e|---------------------------------------------------------------------------|
B|-------------0-----------------0------------------0-----------------0------|
G|-------0-----------0------------------0------------------0--------------0--|
D|----7--------------------10------10-----10--9-------9----------7------7---7|
A|--7-------7-----7-----9-----9-------9---------10------10----9----9---------|
E|---------------------------------------------------------------------------|

  Then: Play however many times.
e|---------------------------------------------------------------------------|
B|--------------------3----0-------------------------------------------------|
G|-----------------0-------------2-0-----0---0--(0)--------------------------|
D|----------0-2-4-------4-----4--------0----0----0---------------------------|
A|----0-2-3--------------------------3-----3---3-----------------------------|
E|--3------------------------------------------------------------------------|

  Anddd to finish the intro:
e|---------------------------------------------------------------------------|
B|------------------------0--------------------------------------------------|
G|--------------------0-----0------------------------------------------------|
D|----0---0---0---0----------------------------------------------------------|
A|------2---3---5---7---9----------------------------------------------------|
E|--3------------------------------------------------------------------------|

  Main Theme:
e|---------------------------------------------------------------------------|
B|---------------------------------------------------------------------------|
G|-----5-----5-5-5-5\-----5-----5-5-5-5\-------------------------------------|
D|-----4-----4-4-4-4\-----4-----4-4-4-4\-------------------------------------|
A|-----x-----x-7-7-x------x-----x-7-x-x--------------------------------------|
E|--0--0---0-0-0-0-0---0--0---0-0-0-0-0--------------------------------------|

  Play for the chorus type thing (Welcome home, she's the one, stripes on fire, etc)
e|---------------------------------------------------------------------------|
B|--3p0---3-0-------3p0---3-0-------3p0---3-0-------0-0-0--0-----------------|
G|--0---0-----2--0--0---0-----2--0--0---0-----2--0--0-----2--0---------------|
D|--0---------------0---------------0---------------0------------------------|
A|--2---------------2---------------2---------------2------------------------|
E|--3---------------3---------------0---------------0------------------------|

That's it! For the end, just play a G. Good Luck.

| /  slide up
| \  slide down
| h  hammer-on
| p  pull-off
| ~  vibrato
| +  harmonic
| x  Mute note
===============================================================================
Tap to rate this tab
 
# A B C D E F G H I J K L M N O P Q R S T U V W X Y Z