Appleseed Cast - Steps And Numbers tab

-------------------------------------------------------------------------------
		STEPS AND NUMBERS - The Appleseed Cast
-------------------------------------------------------------------------------
Tabbed by: A.J. Conner	
Email: ajconner123@gmail.com

Tuning: Standard, CAPO 4TH FRET, all fret numbers relative to capo.

 Chris: Verse (6x, every other time don't play the natural harmonics)
e|---------------------------------------------------------------------------|
B|----------------------------8----------------------------+12---------------|
G|--------------------7----7--------7-----0----------------+12---------------|
D|---------9--------9-----------------------9--------9-----------------------|
A|--10--10---10--10-----10-------10----10-----10--10---10--------------------|
E|---------------------------------------------------------------------------|
v1: "Are you wishing on a star? Did you know your dreams are sold to people
    who dream only of gold? They'll find a way to pull stars down."
v2: "Do you feel the light is gone? Is it hard to remain strong in the face
     of all you know, in a world that's brought you low?"

  Build up:
e|---------------------------------------------------------------------------|
B|---------------------------------------------------------------------------|
G|-----------------0--0--0--0--0--0--0--0--0--0--0--0--0--0--0--0--0--0------|
D|--9--9--9--9----0--0-----0--0-----0--0-----0--0-----0--0-----0--0----------|
A|---10-10-10-10-7--7--7--7--7--7--5--5--5--5--5--5--3--3--3--3--3--3--------|
E|---------------------------------------------------------------------------|

e|---------------------------------------------------------------------------|
B|---------------------------------------------------------------------------|
G|----0--0--0--0--0--0--0--0--0--0--0--0--0--0--0--0--0--0--0--0--0--0--0--0-|
D|---0--0-----0--0-----0--0-----0--0-----0--0-----0--0-----0--0-----0--0-----|
A|--5--5--5--5--5--5--7--7--7--7--7--7--5--5--5--5--5--5--3--3--3--3--3--3---|
E|---------------------------------------------------------------------------|

e|---------------------------------------------------------------------------|
B|--0-0-0-0-0-0-0-0-0-0-0-0-0-0-0-0------------------------------------------|
G|--0-0-0-0-0-0-0-0-0-0-0-0-0-0-0-0------------------------------------------|
D|--0-0-0-0-0-0-0-0-0-0-0-0-0-0-0-0------------------------------------------|
A|--2-2-2-2-2-2-2-2-2-2-2-2-2-2-2-2------------------------------------------|
E|--3-3-3-3-3-3-3-3-3-3-3-3-3-3-3-3------------------------------------------|

  Chorus (2x):
e|---------------------------------------------------------------------------|
B|---------------------------------------------------------------------------|
G|----0--0--0--0--0--0--0--0--0--0--0--0--0--0--0--0--0--0-------------------|
D|---0--0-----0--0-----0--0-----0--0-----0--0-----0--0-----------------------|
A|--7--7--7--7--7--7--5--5--5--5--5--5--3--3--3--3--3--3---------------------|
E|---------------------------------------------------------------------------|
  "Stand there dance with, stand there dance with a memory, caption reads,

e|---------------------------------------------------------------------------|
B|--0-0-0-0-0-0-0-0-0-0-0-0-0-0-0-0------------------------------------------|
G|--0-0-0-0-0-0-0-0-0-0-0-0-0-0-0-0------------------------------------------|
D|--0-0-0-0-0-0-0-0-0-0-0-0-0-0-0-0------------------------------------------|
A|--2-2-2-2-2-2-2-2-2-2-2-2-2-2-2-2------------------------------------------|
E|--3-3-3-3-3-3-3-3-3-3-3-3-3-3-3-3------------------------------------------|
   'it's all over now.'"

  Hook (2x):
e|---------------------------------------------------------------------------|
B|-----------(0)--------(0)--------------------------------------------------|
G|--0--0--0--(0)--0--0--(0)--0--0-----0---------0----------------------------|
D|--5--4--2-------4--0-------5--4---0-----0---0------------------------------|
A|--------------------------------3------3--2--------------------------------|
E|---------------------------------------------------------------------------|
   "Do you feel alone in the secret?
    Are you standing there just weeping?"

Repeat verse, skip build-up, play chorus for twice as long, hook, 
then breakdown:

e|--0--0--0--0--|-------------------------------------------------------|-0-||
B|--0--0--0--0--|o-----------------------------------------------------o|-0-||
G|--0--0--0--0--|--------0-----------0-------4-2-0---2-0-------0---0----|-0-||
D|--2--2--2--2--|o-2-4-2---4-0-2-4-2---4-2-0-------4-----4-2-4---4---4-o|-2-||
A|--2--2--2--2--|-------------------------------------------------------|-2-||
E|--0--0--0--0--|-------------------------------------------------------|-0-||

 Aaron's corresponding guitar parts:
  Verse (with delay):
e|---------------------------------------------------------------------------|
B|---------------------------------------------------------------------------|
G|------0-------------0------------------------------------------------------|
D|----5---5---0-----2---2---0-0----4--5/12-----------------------------------|
A|--7-------7---5\3-------3--------------------------------------------------|
E|---------------------------------------------------------------------------|

  Build up (3x):
e|---------------------------------------------------------------------------|
B|---------------------------------------------------------------------------|
G|---------------------------------------------------------------------------|
D|12-12-12-12-12-12-12-12-10-10-10-10-10-10-10-10-9-9-9-9-9-9-9-9-5-5-5-4--4/|
A|---------------------------------------------------------------------------|
E|---------------------------------------------------------------------------|
  
  Final time:
e|---------------------------------------------------------------------------|
B|---------------------------------------------------------------------------|
G|---------------------------------------------------------------------------|
D|12-12-12-12-12-12-12-12-10-10-10-10-10-10-10-10----------------------------|
A|---------------------------------------------------------------------------|
E|---------------------------------------------------------------------------|

e|---------------------------------------------------------------------------|
B|---------------------------------------------------------------------------|
G|---------------------------------------------------------------------------|
D|--9-9-9-9-9-9-9-9-9-9-9-9-9-9-9-9------------------------------------------|
A|---------------------------------------------------------------------------|
E|---------------------------------------------------------------------------|

  Chorus (4x):
e|---------------------------------------------------------------------------|
B|-------0--------0--------0--------0-------0-------0-------0-------0--------|
G|-----0---0----0---0----0---0----0---0---0---0---0---0---0---0---0---0------|
D|--10-------10-------10-------10-------9-------9-------9-------9------------|
A|---------------------------------------------------------------------------|
E|---------------------------------------------------------------------------|

  Hook (2x):
e|---------------------------------------------------------------------------|
B|---------------------------------------------------------------------------|
G|-----------------------------0---------------------------------------------|
D|--5--4--2----4--0---5--4---0---0-------------------------------------------|
A|-------------------------3-------3-2---------------------------------------|
E|---------------------------------------------------------------------------|

 Repeat as stated above, then breakdown:
               (strum these chords)
e|--0--0--0--0--|-----------------|--0-------------||
B|--0--0--0--0--|o--0------0-----o|--0-------------||
G|--0--0--0--0--|---0------0------|--0-------------||
D|--2--2--2--2--|o--2------5-----o|--2-------------||
A|--2--2--2--2--|---2------5------|--2-------------||
E|--0--0--0--0--|---0------3------|--0-------------||

END

comment/email me with corrections or comments, 
Good Luck!




| /  slide up
| \  slide down
| h  hammer-on
| p  pull-off
| ~  vibrato
| +  natural harmonic
| x  Mute note
===============================================================================
Tap to rate this tab
 
# A B C D E F G H I J K L M N O P Q R S T U V W X Y Z