Appleseed Cast - Blind Mans Arrow tab

-------------------------------------------------------------------------------
		BLIND MAN'S ARROW - The Appleseed Cast
-------------------------------------------------------------------------------
Tabbed by: A.J. Conner	
Email: ajconner123@gmail.com

Tuning: Standard, CAPO 6TH FRET, all fret #'s relative to capo.

Tabbed for one guitar. Pretty simple, really.

  Main Theme
e|--0---------0--------------------------------------------------------------|
B|--1---------1--0---0----0-00-----------------------------------------------|
G|--2---------2--0---0----0-00-----------------------------------------------|
D|--2---------2--0---0----0-00-----------------------------------------------|
A|--0---------0--3---3----3-33-----------------------------------------------|
E|-------------------1----1-11-----------------------------------------------|

  Verse Riff
e|---------------------------------------------------------------------------|
B|------------1-0---------0-------------1-0---------0-1----------------------|
G|------2---2-----0-------0-------2---2-----0-------0-0----------------------|
D|----2---2---------0-----0-----2---2---------0-----0------------------------|
A|--0---------------------3---0---------------------3------------------------|
E|--------------------1-1-1---------------------1-1-1------------------------|

  Bridge
e|---------------------------------------------------------------------------|
B|--1p0-----3p0--------------------------------------------------------------|
G|------2p0-----2p0----------------------------------------------------------|
D|----------------------------(over-and-over)--------------------------------|
A|---------------------------------------------------------------------------|
E|---------------------------------------------------------------------------|

  Bridge (cont.) [4x]
e|---------------------------------------------------------------------------|
B|--0-0-0-0-0-0-0-00-0-0-0-0-0-0-0-00-0-0-0-0-0-0-0-00-0-0-0-0-0-0-0-00------|
G|--0-0-0-0-0-0-0-00-0-0-0-0-0-0-0-00-0-0-0-0-0-0-0-00-0-0-0-0-0-0-0-00------|
D|--0-0-0-0-0-0-0-00-0-0-0-0-0-0-0-00-2-2-2-2-2-2-2-22-2-2-2-2-2-2-2-22------|
A|--5-5-5-5-5-5-5-55-2-2-2-2-2-2-2-22-2-2-2-2-2-2-2-22-3-3-3-3-3-3-3-33------|
E|--3-3-3-3-3-3-3-33-3-3-3-3-3-3-3-33-0-0-0-0-0-0-0-00-1-1-1-1-1-1-1-11------|

  Ending
e|---------------------------------------------------------------------------|
B|-------0---------0---------0--------0----0---------------------------------|
G|--0----0----0----0----0----0---0----0----0---------------------------------|
D|--0----0----2----2----0----0---2----2----0---------------------------------|
A|--2----2----2----3----2----2---2----3----2---------------------------------|
E|--3---------0----1----3--------0----1----3---------------------------------|

MT: 1x
VR: 3x
MT: 4x
VR: 3x
MT: 4x
Bridge
Ending

Lyrics:

In this lifetime we can mix knives and paper doves.
On the rooftops, if it quakes it's hollowed out.
I fell down this daylight, blind man's arrow
buried in my love's heart, tape was wound.
Life ties backdrop figures and puppets with scissor hands.
On the outside, all of these words are falling down.
I fell down this daylight, blind man's arrow
buried in my love's heart, tape was wound.
Porcelain light a moonless night. In closing. always closing.
Backdrop falls in blue lights shone. In closing, always closing. 
Fortunate day, simple to say. In closing. always closing. 
The curtain is drawn. The lights go on. In closing. always closing.  


| /  slide up
| \  slide down
| h  hammer-on
| p  pull-off
| ~  vibrato
| +  harmonic
| x  Mute note
===============================================================================
Tap to rate this tab
 
# A B C D E F G H I J K L M N O P Q R S T U V W X Y Z