Appleseed Cast - Fight Song tab

The Appleseed Cast “Fight Song”
Capo 4th fret

It seems strange, but this is actually how they play it. I‘m not 100% sure how the solo 
but everything else is correct

Guitar 1

Intro/verse/chorus
E|----------------------------------------------------|
B|----------------------------------------------------|
G|-13-11-13-11-13-11-13-11--11--9-11--9-11--9-11--9---|
D|-13-11-13-11-11-11-11-11---9--9--9--9--9--9--9--9---|
A|-11-11-11-11-11-11-11-11---9--9--9--9--9--9--9--9---|
E|----------------------------------------------------|

e|-----------------------------------------------------|
B|-----------------------------------------------------|
G|---9--7--9--7--9--7--9--7----9--7--9--7--9--7--9--7--|
D|---9--7--9--7--9--7--9--7----9--7--9--7--9--7--9--7--|
A|---7--7--7--7--7--7--7--7----7--7--7--7--7--7--7--7--|
E|-----------------------------------------------------|

solo
e|-----------------|
B|-----------------|
G|--13------11-----|
D|---x-------x-----|
A|--11-------9-----|
E|-----------------|

e|---------------------------------------------------|
B|---------------------------------------------------|
G|---8----------6-----------8------------8-----------|
D|---x----------x-----------x------------x-----------|
A|---6----------4-----------6------------6-----------|
E|---------------------------------------------------|

Play the verse riff again for the rest of the song

End on
e|--------|
B|---13---|
G|----x---|
D|---11---|
A|--------|
E---------|


Guitar 2

Intro/Verse
E|-----------------------------------------------------------|
B|-----------------------------------------------------------|
G|--13--4--16--4--15--4--11--4--13--4--16--4--15--4--11--4---|
D|-----------------------------------------------------------|
A|-----------------------------------------------------------|
E|-----------------------------------------------------------|

Chorus x2
e|---------------------------------------------------|
B|---------------------------------------------------|
G|--13-13-13-13-15-15-15-15-16-16-16-16-16-16-16-16--|
D|---x--x--x--x--x--x--x--x--x--x--x--x--x--x--x--x--|
A|--11-11-11-11-13-13-13-13-14-14-14-14-14-14-14-14--|
E|---------------------------------------------------|

Solo
e|----------------------------------------------------------------|
B|----------------------------------------------------------------|
G|----8-/9-11-----8-/9-11-11-----11-/-13-13-13----13-\-11-11-11---|
D|----------------------------------------------------------------|
A|----------------------------------------------------------------|
E|----------------------------------------------------------------|

e|------------------------------|
B|------------------------------|
G|---11-\-9--9-9----9-\-8-6-6---|
D|------------------------------|
A|------------------------------|
E|------------------------------|

Play through the chorus then play the verse riff  for the rest of the song

End on
e|-----------------------------------------------|
B|-----------------------------------------------|
G|--11-4-11-4-11-4-11-4-11-4-11-4-11-4-11-4-----|
D|-----------------------------------------------|
A|-----------------------------------------------|
E|-----------------------------------------------|
Tap to rate this tab
 
# A B C D E F G H I J K L M N O P Q R S T U V W X Y Z