Song name
# A B C D E F G H I J K L M N O P Q R S T U V W X Y Z

Appleseed Cast - Fight Song tab

I wasn't able to find a correct, full version of this song, so I tried to figure out 
most of it by ear.

I believe the intro is played with a Capo, but this version doesn't require one.

Great song and I hope this helps!


Intro/Verse 1 - Palm mute

e -------------------------------------------------------------------------|
B -------------------------------------------------------------------------|
G ---8--8--8--8--8--8--8--8--8--8--8--8--8--8--8--8------------------------|
D ---9--9--9--9--9--9--9--9--9--9--9--9--9--9--9--9------------------------|
A --11-11-11-11-11-11-11-11-11-11-11-11-11-11-11-11------------------------|
E -------------------------------------------------------------------------|

e -------------------------------------------------------------------------|
B -------------------------------------------------------------------------|
G ---8--8--8--8--8--8--8--8--8--8--8--8--8--8--8--8------------------------|
D --11-11-11-11-11-11-11-11-11-11-11-11-11-11-11-11------------------------|
A ---9--9--9--9--9--9--9--9--9--9--9--9--9--9--9--9------------------------|
E -------------------------------------------------------------------------|

e -------------------------------------------------------------------------|
B -------------------------------------------------------------------------|
G --9-9-9-9-9-9-9-9-9-9-9-9---8-8-8-8-8-8-8-8-8-8-8------------------------|
D --9-9-9-9-9-9-9-9-9-9-9-9---9-9-9-9-9-9-9-9-9-9-9------------------------|
A --7-7-7-7-7-7-7-7-7-7-7-7---7-7-7-7-7-7-7-7-7-7-7------------------------|
E -------------------------------------------------------------------------|

And there on the stairs,
Standing there................Cause I cant face this now




Pre-Chorus/Chorus (Band Enters) - Strum and Repeat

e -------------------------------------------------------------------------|
B -------------------------------------------------------------------------|
G ---6--6--6--6--6--6--6--6--6--6--6--6--6--6--6--6------------------------|
D ---6--6--6--6--6--6--6--6--6--6--6--6--6--6--6--6------------------------|
A ---4--4--4--4--4--4--4--4--4--4--4--4--4--4--4--4------------------------|
E -------------------------------------------------------------------------|

e -------------------------------------------------------------------------|
B -------------------------------------------------------------------------|
G -------------------------------------------------------------------------|
D ---9--9--9--9--9--9--9--9--9--9--9--9--9--9--9--9------------------------|
A ---6--6--6--6--6--6--6--6--6--6--6--6--6--6--6--6------------------------|
E -------------------------------------------------------------------------|

e -------------------------------------------------------------------------|
B -------------------------------------------------------------------------|
G ---1--1--1--1--1--1--1--1--1--1--1--1--1--1--1--1------------------------|
D ---2--2--2--2--2--2--2--2--2--2--2--2--2--2--2--2------------------------|
A ---2--2--2--2--2--2--2--2--2--2--2--2--2--2--2--2------------------------|
E ---0--0--0--0--0--0--0--0--0--0--0--0--0--0--0--0------------------------|

This is the end, nothing to keep.
This is the end of you and me.
As the ice comes down its the end,
As the lies come out its the end,
As the tears flow out its the end,
It's the end of you and me.



Bridge - Ring out chords

e -------------------------------------------------------------------------|
B -------------------------------------------------------------------------|
G ---6------4--------------1-----------------------------------------------|
D ---6------4------4-------2-----------------------------------------------|
A ---4------2------4-------2-----------------------------------------------|
E ---4-------------2-------0-----------------------------------------------|

So we look out on the lake
And we see the white light.

e -------------------------------------------------------------------------|
B -------------------------------------------------------------------------|
G ---4-------------6-------1-----------------------------------------------|
D ---4------6------6-------2-----------------------------------------------|
A ---2------6------4-------2-----------------------------------------------|
E ----------4------4-------0-----------------------------------------------|

I said it was gold,
It should have been gold.
Then maybe all the crazy things you said
Would have a meaning.




Verse 2 (Guitar only) - Palm Mute

e -------------------------------------------------------------------------|
B -------------------------------------------------------------------------|
G ---8--8--8--8--8--8--8--8--8--8--8--8--8--8--8--8------------------------|
D ---9--9--9--9--9--9--9--9--9--9--9--9--9--9--9--9------------------------|
A --11-11-11-11-11-11-11-11-11-11-11-11-11-11-11-11------------------------|
E -------------------------------------------------------------------------|

e -------------------------------------------------------------------------|
B -------------------------------------------------------------------------|
G ---8--8--8--8--8--8--8--8--8--8--8--8--8--8--8--8------------------------|
D --11-11-11-11-11-11-11-11-11-11-11-11-11-11-11-11------------------------|
A ---9--9--9--9--9--9--9--9--9--9--9--9--9--9--9--9------------------------|
E -------------------------------------------------------------------------|

e -------------------------------------------------------------------------|
B -------------------------------------------------------------------------|
G --9-9-9-9-9-9-9-9-9-9-9-9-9-9-9-9--8-8-8-8-8-8-8-8-8-8-8-8-8-8-8-8-------|
D --9-9-9-9-9-9-9-9-9-9-9-9-9-9-9-9--9-9-9-9-9-9-9-9-9-9-9-9-9-9-9-9-------|
A --7-7-7-7-7-7-7-7-7-7-7-7-7-7-7-7--7-7-7-7-7-7-7-7-7-7-7-7-7-7-7-7-------|
E -------------------------------------------------------------------------|

But this thing, we have made,
It cant stop, it wont stop.
Cause I canít face you now.



Outro/Chorus - Strum and Repeat

e -------------------------------------------------------------------------|
B -------------------------------------------------------------------------|
G ---6--6--6--6--6--6--6--6--6--6--6--6--6--6--6--6------------------------|
D ---6--6--6--6--6--6--6--6--6--6--6--6--6--6--6--6------------------------|
A ---4--4--4--4--4--4--4--4--4--4--4--4--4--4--4--4------------------------|
E -------------------------------------------------------------------------|

e -------------------------------------------------------------------------|
B -------------------------------------------------------------------------|
G -------------------------------------------------------------------------|
D ---9--9--9--9--9--9--9--9--9--9--9--9--9--9--9--9------------------------|
A ---6--6--6--6--6--6--6--6--6--6--6--6--6--6--6--6------------------------|
E -------------------------------------------------------------------------|

e -------------------------------------------------------------------------|
B -------------------------------------------------------------------------|
G ---1--1--1--1--1--1--1--1--1--1--1--1--1--1--1--1------------------------|
D ---2--2--2--2--2--2--2--2--2--2--2--2--2--2--2--2------------------------|
A ---2--2--2--2--2--2--2--2--2--2--2--2--2--2--2--2------------------------|
E ---0--0--0--0--0--0--0--0--0--0--0--0--0--0--0--0------------------------|

Take your troubles solo,
Take your troubles solo,
(The end of you and me)
[x2]

As the ice comes down its the end,
As the lies come out its the end,
As the tears come out its the end,
The end of you and me.
[x2]
Tap to rate this tab
 
# A B C D E F G H I J K L M N O P Q R S T U V W X Y Z