Song name
# A B C D E F G H I J K L M N O P Q R S T U V W X Y Z

Appleseed Cast - Marigold And Patchwork tab

|---------------------------------------------------------------------------|
Marigold & Patchwork (Intro) - The Appleseed Cast
|---------------------------------------------------------------------------|
Tabbed by: Liam_Chris.
Email: Liamchrisk@gmail.com.

Tuning: Standard.

Intro:

If you listen to the song, the strumming isn't hard to get at all once you've learnt this tab.

e|-------------------------------------------------|
B|-12-12-12-12-10-10-10-10-12-12-12-12-13-13-13-12-|
G|-0--0--0--0--0--0--0--0--0--0--0--0--0--0--0--0--|
D|-12-12-12-12-12-12-12-12-12-12-12-12-12-12-12-12-|
A|-10-10-10-10-9--9--9--9--10-10-10-10-10-10-10-10-|
E|-------------------------------------------------|

e|-------------------------------------------------|
B|-8--8--8--8--7--7--7--7--5--5--5--5--5--5--5--5--|
G|-0--0--0--0--0--0--0--0--0--0--0--0--0--0--0--0--|
D|-9--9--9--9--7--7--7--7--5--5--5--5--5--5--5--5--|
A|-7--7--7--7--5--5--5--5--3--3--3--3--3--3--3--3--|
E|-------------------------------------------------|

That's it. As for the rest of the song, I may post it at some point in the future. 
Tap to rate this tab
# A B C D E F G H I J K L M N O P Q R S T U V W X Y Z