Song name
# A B C D E F G H I J K L M N O P Q R S T U V W X Y Z

Appleseed Cast - Blind Mans Arrow tab

Help us improve GuitareTab! Take a short survey!
Standard Tuning

Intro

Guitar 1

e-6-------------|
b-7-------------|
g-8---8--6--4---|
d-8---8--6--4---|
a-6---6--4--2---|
E---------------|

Guitar 2

e-18--18-18--16---|
b-x---x--x---x----|
g-15--15-15--13---|
d-----------------|
a-----------------|
E-----------------|

verse guitar 1

e--------------------------|
b--------------------------|
g----8---11-10-6---6-------|
d--8-------------6---6/4---|
a--------------------------|
E--------------------------|

Guitar 2 acoustic strums this

e-----
b-----
g-8---
d-8---
a-6---
E-----

Next part

e----------------------------|
b--------------9-------------|
g-11-10----------11-10-------|
d--------11--8----------11---|
a----------------------------|
E----------------------------|

to the end of the song strum this

e-----
b-----
g-8---
d-8---
a-6---
E-----
Related for Blind Mans Arrow tab