Song name
# A B C D E F G H I J K L M N O P Q R S T U V W X Y Z

Appleseed Cast - Peregrine tab

"Peregrine"
The Appleseed Cast
Peregrine (2006)

Standard Tuning

Intro(x3:

e|----------------------------|
B|----------------------------|
G|--7------7------7------7----|
D|-----9------9------9--------|
A|----------------------------|
E|----------------------------|

------------------------------|
----8------8------8------8----|
-------9------9------9--------|
------------------------------|
------------------------------|
------------------------------|

------------------------------|
----7------7------7------7----|
-------7------7------7--------|
------------------------------|
------------------------------|
------------------------------|

------------------------------|
----5------5------5------5----|
-------6------6------6--------|
------------------------------|
------------------------------|
------------------------------|

Bass part, but can be played on guitar:

-------------------------------|
-------------------------------|
-------------------------------|
-------------------------------|
---------------7---10----------|
--7-------10-------------7-----|
Tap to rate this tab
# A B C D E F G H I J K L M N O P Q R S T U V W X Y Z