Guitaretab - guitar tabs
Song name
# A B C D E F G H I J K L M N O P Q R S T U V W X Y Z

Appleseed Cast - Mile Marker tab

-------------------------------------------------------------------------------
			     MILE MARKER - The Appleseed Cast
-------------------------------------------------------------------------------
Tabbed by: Matt
Email: mshahabian @ gmail.com

This is the solo part that starts at about 1:40

Tuning: Standard - Capo 5 (tab relative to capo)
[ Tab from: http://www.guitaretab.com/a/appleseed-cast/83371.html ]
e|--4---0--------------------------------------------------------------------|
B|----------0---4---2--------------------------------------------------------|
G|----------------------2---4---2---4---2---1---4---2---1------1-----1-------|
D|----------------------------------------------------------4-----4-----2----|
A|---------------------------------------------------------------------------|
E|---------------------------------------------------------------------------|

Rinse. Wash. Repeat.
Related for Mile Marker tab