Guitaretab - guitar tabs
Song name
# A B C D E F G H I J K L M N O P Q R S T U V W X Y Z

Appleseed Cast - A Place In Line tab

artist:	the appleseed cast
song:	a place in line
tuning:	standard


guitar 1
e --------7-----------7-----------7-----------7----|
B -------(0)---------(0)---------(0)---------(0)---|
G ----------0-----------0-----------0-----------0--|
D -------------------------------------------------|
A --10-10-------10-10-------10-10-------10-10------|
E -------------------------------------------------|

e --------7-----------7-----------7-----------7----|
B -------(0)---------(0)---------(0)---------(0)---|
G ----------0-----------0-----------0-----------0--|
D -------------------------------------------------|
A --10-10-------10-10-------10-10-------10-10------|
E ---8--8--------8--8--------8--8--------8--8------|
...repeat!

[ Tab from: http://www.guitaretab.com/a/appleseed-cast/96253.html ]
guitar 2, played over guitar 1
e --------------------------------------------|
B --------------------------------------------|
G --------------------9-9-7-7-----------------|
D --------------10-10---------10-10-9-9-7-----|
A --------10-10---------------------------10--|
E --8-8-8-------------------------------------|


bridge

guitar 1
e --12-12-------------------------9--|
B --------12-12-10-10----------------|
G -----------------------------------|
D --------------------12-12-11-11----|
A -----------------------------------|
E -----------------------------------|

guitar 2, played over guitar 1 - listen out for it second time round!
e ------0-----|---------|
B ------------|------2--|
G --2---------|--2------|
D ----0-------|----0----|
A ------------|---------|
E ------------|---------|
Related for A Place In Line tab