Song name
# A B C D E F G H I J K L M N O P Q R S T U V W X Y Z

Appleseed Cast - An Orang And A Blue tab

artist:	the appleseed cast
song:	an orange and a blue
tuning:	standard
notes:	capo on fret 4, tab is relative
	slight delay effect on intro

play x 1

e -------------------------------------------------------------------------|
B ------2---3---2----------2---3---2---------------------------------------|
G ----2---4---4---2------2---4---4---2-------------------------------------|
D -------------------------------------------------------------------------|
A --0------------------0---------------0-----------------------------------|
E -------------------------------------------------------------------------|


play x 2

e -------------------------------------------------------------------------|
B -------------------------------------------------------------------------|
G --------------2--0------------------------------2-0-2-4-2-0-0------------|
D ----0-2-4-5-4--------0-2-4-5-4-2-0-0----2-4-5-4---------------4-2-0------|
A --0-----------------------------------0----------------------------------|
E -------------------------------------------------------------------------|

play x 1

e -------------------------------------------------------------------------|
B ---------------5--5--5--5---------------------0--------------------------|
G --6--6--6--6----6--6--6--6---7--7--7--6-------6--------------------------|
D ---0--0--0--0-----------------0--0--0--7------7--------------------------|
A ----------------------------------------------0--------------------------|
E -------------------------------------------------------------------------|

  repeat above, then...

e -------------------------------------------------------------------------|
B --5-5-5-5--3-3-3-3--6-6-6-6--5-5-5-5--5-5-5-5--3-3-3-3--6-6-6-6--5-5-5-5-|
G --5-5-5-5--4-4-4-4--7-7-7-7--5-5-5-5--5-5-5-5--4-4-4-4--7-7-7-7--5-5-5-5-|
D -------------------------------------------------------------------------|
A -------------------------------------------------------------------------|
E -------------------------------------------------------------------------|

  the following isn't right (i can't pick out the chords), but it sounds fine to play over the top...

e -------------------------------------------------------------------------|
B -------------------------------------------------------------------------|
G -----5--7----------------------------------------------------------------|
D --7--------5----5--7--9--10--9--7--5-------------------------------------|
A -------------------------------------------------------------------------|
E -------------------------------------------------------------------------|


Tap to rate this tab
# A B C D E F G H I J K L M N O P Q R S T U V W X Y Z