Guitaretab - guitar tabs
Song name
# A B C D E F G H I J K L M N O P Q R S T U V W X Y Z

Appleseed Cast - Here We Are Family In The Hallways tab

artist:	the appleseed cast
song:	here we are (family in the hallways)
tuning:	standard
notes:	capo on fret 4, tab is relative


repeat...
e -------------------------------------------------------------------------------|
B ---------------------------------------------3------------------------3--------|
G -------------------0----0-------0---0------0-----0-------0---0------0-----0----|
D ----0----0------2-----2---2--4----4---4--2-----2---2--4----4---4--2-----2---2--|
A -2-----2---2-0-----------------------------------------------------------------|
E -------------------------------------------------------------------------------|

[ Tab from: http://www.guitaretab.com/a/appleseed-cast/96257.html ]
play once
e --7---7---5---5-----5p-2---------2---------------------------------------|
B ---------------------------h5--h3----5--3--------------------------------|
G -------------------------------------------2-----------------------------|
D -------------------------------------------------------------------------|
A -------------------------------------------------------------------------|
E -------------------------------------------------------------------------|


play x 2
e -------------------------------------------------------------------------|
B -------3-----3-------------3------3--------------------------------------|
G ----0------0-----0------0-------0-----0----------------------------------|
D -2-------2-----2-----4--------4-----4------------------------------------|
A -------------------------------------------------------------------------|
E -------------------------------------------------------------------------|
Related for Here We Are Family In The Hallways tab