Song name
# A B C D E F G H I J K L M N O P Q R S T U V W X Y Z

April Morning Skies - Deathstar Diorama tab

Deathstar Diorama
by April Morning Skies
In Darker Days Ahead

lancerobinchua2@yahoo.com.ph

-please pm me if you find any mistakes or have any suggestions
-still a work in progress, only about half the song
-i'll say right here and now that this tab is not 100% accurate
-corrections are really really appreciated. flaming not so much...


Tuning: Drop C
C G C F A D

*  = palm mute
'  = stacatto 
() = natural harmonic 
[] = ghost note (just play it quick, you can actually skip it if you want...)
^  = bend

try to figure out the strumming pattern on your own, i'm too lazy to count, sorry,...
listening to the song itself helps...
the lead guitarist PROBABLY uses chorus or ensemble effect on the riffs,...

intro 
|----------------------------------------|
|----------------------------------------|
|----------------------------------------|
|-[0]--2--2-3-2-3-3--2-3--0-2-3-2--5-3---|  2x
|-[0]--2--2-3-2-3-3--2-3--0-2-3-2--5-3---|
|-[0]--2--2-3-2-3-3--2-3--0-2-3-2--5-3---|
   *

|-----------------------------------------------------|
|-----------------------------------------------------| 
|--------------1212121212121212-111111111111111-99999-|
|-[5]-7-77-777-7-7-7-7-7-7-7-7--7-7-7-7-7-7-7-7-77777-| 2x
|-[5]-7-77-777-7-7-7-7-7-7-7-7--7-7-7-7-7-7-7-7-77777-|
|-[5]-7-77-777-7-7-7-7-7-7-7-7--7-7-7-7-7-7-7-7-77777-|
  *


|--------------------------------------|
|--------------------------------------|
|--------------------------------------|  2x
|-[0]--2--2-3-2-5-3-2-3--0-2-3-2--5-3--|
|-[0]--2--2-3-2-5-3-2-3--0-2-3-2--5-3--|
|-[0]--2--2-3-2-5-3-2-3--0-2-3-2--5-3--|
   *      * * * * * * *  * * * *  * *

|-----------------------------------------------------|
|-----------------------------------------------------| 
|-[5]-7-77-777-1212121212121212-111111111111111-99999-|
|-[5]-7-77-777-7-7-7-7-7-7-7-7--7-7-7-7-7-7-7-7-77777-| 2x
|-[5]-7-77-777-7-7-7-7-7-7-7-7--7-7-7-7-7-7-7-7-77777-|
|-[5]-7-77-777-7-7-7-7-7-7-7-7--7-7-7-7-7-7-7-7-77777-|
   *


verse

guitar 1
|----------------------|          |---------------------------------------------------|
|----------------------|	  |---------------------------------------------------|
|----------------------| 2x	  |---------------------------------------------------|
|-[0]-2-22-22222222222-|	  |--[0]-7-77-77-[0]-7-77-77-[0]-7-77-77-[0]-7-77-77--|
|-[0]-2-22-22222222222-|	  |--[0]-7-77-77-[0]-7-77-77-[0]-7-77-77-[0]-7-77-77--|
|-[0]-2-22-22222222222-|	  |--[0]-7-77-77-[0]-7-77-77-[0]-7-77-77-[0]-7-77-77--|
   *       ***********   	      *           *	      *	   	  *

guitar 2
|-----------(7)---------------(9)---|   |----------------------------|
|-----------(7)---------------(9)---|   |--10-----10-----10----10----|
|-----------(7)---------------(9)---|   |--9------9------9-----9-----|
|-[0]-2-22--(7)----[0]-2-22---(9)---|   |-77-777777-777777-777777777-|
|-[0]-2-22---------[0]-2-22---------|   |-77-777777-777777-777777777-|
|-[0]-2-22---------[0]-2-22---------|   |-77-777777-777777-777777777-|
   *                *  

|-------------------------------------------------------------------|
|-------------------------------------------------------------------|
|-----------12121212-111111-999-------------121212-14141414-161616--|
|-[0]-2-22--x-x-x-x--x-x-x--xxx---[0]-2-22--x-x-x--x-x-x-x--x-x-x---|
|-[0]-2-22--10101010-9-9-9--777---[0]-2-22--101010-12121212-141414--|
|-[0]-2-22------------------------[0]-2-22--------------------------|
   *                               *

|----------------------------------|
|----------------------------------|
|----------17171717-161616161616---|
|-7-77-----x-x-x-x--x-x-x-x-x-x----|
|-7-77-----15151515-141414141414---|
|-7-77-----------------------------|

verse part 2

|--------------------------------|
|--------------------------------|
|--------------------------------|
|-[0]-2-33-2-33-00-222-222-222---|
|-[0]-2-33-2-33-00-222-222-222---|
|-[0]-2-33-2-33-00-222-222-222---|
   *    **   ** ** *** *** ***

|-------------------------------------|
|-------------------------------------|
|-------------------------------------|
|-[0]-2-33-2-33-00--------------------|
|-[0]-2-33-2-33-00----------2h3p2-----|
|-[0]-2-33-2-33-00--0h3-5h7-------5-7-|
   *    **   ** **

|------------------------------------------------|
|------10----------------------------------------|
|------9--1212121212121212-111111111111111-99999-|
|-7-77-7-77-7-7-7-7-7-7-7--7-7-7-7-7-7-7-7-77777-|
|-7-77-7-77-7-7-7-7-7-7-7--7-7-7-7-7-7-7-7-77777-|
|-7-77-7-77-7-7-7-7-7-7-7--7-7-7-7-7-7-7-7-77777-|
  

|-----------------------------------------|
|--------------------------8-10-12h13p12--|
|--------------------10-12----------------|
|-[0]-2-33-2-33-00------------------------|
|-[0]-2-33-2-33-00------------------------|
|-[0]-2-33-2-33-00------------------------|
   *    **   ** **


|------------------------------------------------|
|------10----------------------------------------|
|------9--1212121212121212-111111111111111-99999-|
|-7-77-7-77-7-7-7-7-7-7-7--7-7-7-7-7-7-7-7-77777-|
|-7-77-7-77-7-7-7-7-7-7-7--7-7-7-7-7-7-7-7-77777-|
|-7-77-7-77-7-7-7-7-7-7-7--7-7-7-7-7-7-7-7-77777-|


|-------------------------------------|
|-------------------------------------|
|-------------------------------------|
|-[0]-2-33-2-33-00--------------------|
|-[0]-2-33-2-33-00----------2h3p2-----|
|-[0]-2-33-2-33-00--0h3-5h7-------5-7-|
   *    **   ** **

|------------------------------------------------|
|------10----------------------------------------|
|------9--1212121212121212-111111111111111-99999-|
|-7-77-7-77-7-7-7-7-7-7-7--7-7-7-7-7-7-7-7-77777-|
|-7-77-7-77-7-7-7-7-7-7-7--7-7-7-7-7-7-7-7-77777-|
|-7-77-7-77-7-7-7-7-7-7-7--7-7-7-7-7-7-7-7-77777-|

refrain

guitar 1
|-----------------------------------------------------------------|
|-----------------------------------------------------------------|
|-----------------------------------------------------------------|
|-3-33-3-33-3-[3]-5-55-5-55-5-[5]-7-77-7-77-7-[7]-7-77-7-77-7-[7]-| 2x
|-3-33-3-33-3-[3]-5-55-5-55-5-[5]-7-77-7-77-7-[7]-7-77-7-77-7-[7]-|
|-3-33-3-33-3-[3]-5-55-5-55-5-[5]-7-77-7-77-7-[7]-7-77-7-77-7-[7]-|
    **   **    *    **   **    *    **   **    *    **   **    *

guitar 2
|---------------------------------------7h8------------7h8-------|
|----------------------------------8h10-----10p8--8h10-----10p8--|
|-5-----5-----5--7-----7-----7-----------------------------------|
|---3-3---3-3---3--5-5---5-5---5---------------------------------|
|----------------------------------------------------------------|
|----------------------------------------------------------------|
    * *   * *   *  * *   * *   *

|---------------------------------------7h8-----------|
|----------------------------------8h10-----10p8h10~--|
|-5-----5-----5--7-----7-----7------------------------|
|---3-3---3-3---3--5-5---5-5---5----------------------|
|-----------------------------------------------------|
|-----------------------------------------------------|
    * *   * *   *  * *   * *   *


chorus (not really sure about this part)

guitar 1
|------------------------------------------------------------------------------|
|------------------------------------------------------------------------------|
|------------------------------------------------------------------------------|
|-1010101010101010101010-3333-222222222222-22-7-77-77-5-3-3p2-3-33-33-3333333--|
|-1010101010101010101010-3333-222222222222-22-7-77-77---------3-33-33-3333333--|
|-1010101010101010101010-3333-222222222222-22-7-77-77---------3-33-33-3333333--|
					        ** 
guitar 2
|-----------------------------------------------------------------|
|-----------------------------------------------------------------|
|-121212121212121212121212\14141414\1616161616161616161616161616--|
|-x-x-x-x-x-x-x-x-x-x-x-x--x-x-x-x--x-x-x-x-x-x-x-x-x-x-x-x-x-x---|
|-101010101010101010101010\12121212\1414141414141414141414141414--|
|-----------------------------------------------------------------|


|------------------------------------15151515---------15151515~--|
|------10-13-------10-13-------10-13-----------------------------|
|-9-12----------12--------9-12------------------12h14------------|
|------------13--------------------------------------------------|
|----------------------------------------------------------------|
|----------------------------------------------------------------|

bass riff (1:50~1:53)

|--------------------------------|
|--------------------------------|
|--------------------------------|
|--------------------------------|
|---0-3-2h3-5-3-2h3p2------------|
|-0-------------------5----------|

guitar 1
|------------------------------------------------------------------------------|
|------------------------------------------------------------------------------|
|------------------------------------------------------------------------------|
|-1010101010101010101010-3333-222222222222-22-7-77-77-5-3-3p2-3-33-33-3333333--|
|-1010101010101010101010-3333-222222222222-22-7-77-77---------3-33-33-3333333--|
|-1010101010101010101010-3333-222222222222-22-7-77-77---------3-33-33-3333333--|
					        ** 

guitar 2
|-----------------------------------------------------------------|
|-----------------------------------------------------------------|
|-121212121212121212121212\14141414\1616161616161616161616161616--|
|-x-x-x-x-x-x-x-x-x-x-x-x--x-x-x-x--x-x-x-x-x-x-x-x-x-x-x-x-x-x---|
|-101010101010101010101010\12121212\1414141414141414141414141414--|
|-----------------------------------------------------------------|

|------------------------|
|------------------------|
|------5-4h5-7-5-4h5p4---|
|--3-3-----------------5-|
|------------------------|
|------------------------|


fill

guitar 1
|----------------------------------------------------------------|
|----------------------------------------------------------------|
|----------------------------------------------------------------|
|-3-222222222222-3-222222222222-3-22222222-2-2-3-222222222222-2--|
|-3-222222222222-3-222222222222-3-22222222-2-2-3-222222222222-2--|
|-3-222222222222-3-222222222222-3-22222222-2-2-3-222222222222-2--|
    ************   ************   ******** ' '   ************ *'

guitar 2
|-------------|
|-------------|
|-14^~--18^~--|
|-x-----x-----|
|-12^~--16^~--|
|-------------|


|--------------------------------|
|--------------------------------|
|--------------------------------|
|--------------------------------|
|--------------------------------|
|--------------------------------|

http://www.myspace.com/aprilmorningskies

Tap to rate this tab
 
# A B C D E F G H I J K L M N O P Q R S T U V W X Y Z