April Sixth - Dear Angel tab

        April Sixth - Dear Angel

Tuning: 1E 2B 3G 4D 5A 6E

INTRO/VERSE
|-0-0-x-0-0-0-0--0-0-x-0-0-0-0--0-0-x-0-0-x-0-0-x-0-0-0-0-|
|-5-5-x-5-5-5-5--0-0-x-0-0-0-0--0-0-x-0-0-x-0-0-x-0-0-0-0-|
|-6-6-x-6-6-6-6--6-6-x-6-6-6-6--8-8-x-8-8-x-9-9-x-8-8-8-8-|
|-6-6-x-6-6-6-6--7-7-x-7-7-7-7--9-9-x-9-9-x-9-9-x-9-9-9-9-|
|-4-4-x-4-4-4-4--7-7-x-7-7-7-7--9-9-x-9-9-x-9-9-x-9-9-9-9-|
|----------------5-5-x-5-5-5-5--7-7-x-7-7-x-7-7-x-7-7-7-7-|

|---------------------------------|
|-----9~-----9~-------------------|
|-8h9----8h9----9-8-9p8----8h9-8~-|
|-----------------------9~--------|
|---------------------------------|
|---------------------------------|

CHORUS
|--------------------|
|--------------------|
|--------------------|
|-11-----7-----9-----|
|-11-X8--7-X8--9-X16-|
|--9-----5-----7-----|

POST-CHORUS
|--------------------------------------------------------------------------|
|--------------------------------------------------------------------------|
|--------------------------------------------------------------------------|
|-11-11-11-11-11-x-11-x--7-7-7-7-7-x-7-x--9-9-9-9-9-x-9-x--9-9-9-9-9-x-9-x-|
|-11-11-11-11-11-x-11-x--7-7-7-7-7-x-7-x--9-9-9-9-9-x-9-x--9-9-9-9-9-x-9-x-|
|--9--9--9--9--9-x--9-x--5-5-5-5-5-x-5-x--7-7-7-7-7-x-7-x--7-7-7-7-7-x-7-x-|
   x     x  x            x   x x          x   x x          x   x x

|-----------------|
|-----------------|
|-9-8-9-11-9-8-9~-|
|-----------------|
|-----------------|
|-----------------|

VERSE
|-------------------------|
|-------------------------|
|-------------------------|
|-11-----7-----9-----9----|
|-11-X8--7-X8--9-X8--9-X8-|
|--9-----5-----7-----7----|
   x     x     x

|---------------------------------|
|-----9~-----9~-------------------|
|-8h9----8h9----9-8-9p8----8h9-8~-|
|-----------------------9~--------|
|---------------------------------|
|---------------------------------|

|--------------------------------------------------------------|
|--------------------------------------------------------------|
|--------------------------------------------------------------|
|-11-11-x-11-11-x-11--7-7-x-7-7-x-7--9-9-9-9-9-x-9-x--9-----9~-|
|-11-11-x-11-11-x-11--7-7-x-7-7-x-7--9-9-9-9-9-x-9-x--9-X8--9~-|
|--9--9-x--9--9-x--9--5-5-x-5-5-x-5--7-7-7-7-7-x-7-x--7-----7~-|
                                     x   x x 
BRIDGE
|-------------------------|
|-------------------------|
|-------------------------|
|-11-----9-----7-----6----|
|-11-X8--9-X8--7-X8--6-x8-|
|--9-----7-----5-----4----|

|-------------------------|
|-------------------------|
|-6-X8--8-X8--9-X8--11-X8-|
|-------------------------|
|-------------------------|
|-------------------------|

SOLO
|--------------------------------------------------------------------|
|-9-9-9-----------------------------------9-9-9-9-9------------------|
|-------9-9-8-8--8-8-9-9-9-9-8-8-8--9-9-9------------9-9-9-8-8-8-8-8-|
|--------------------------------------------------------------------|
|--------------------------------------------------------------------|
|--------------------------------------------------------------------|

|---------------------------------------------|
|-----9-----9---------------------------------|
|-8h9---8h9---9-8h9---9p8---9p8---9p8---9p8---|
|-------------------9-----9-----9-----9-----9-|
|---------------------------------------------|
|---------------------------------------------|
Tap to rate this tab
 
# A B C D E F G H I J K L M N O P Q R S T U V W X Y Z