April Sixth - Star Left On Me Acoustic tab

Intro:

   G         Asus2/D         E             C-Em/C-C-Em/C
|-3------------2----------0-------------||---0--0--0--0--|
|---------------------------------------||---1--0--1--0--|
|----0-----------0-----------2----------||---0--0--0--0--|
|-------0-----------2-----------0-------||---2--2--2--2--|
|----------0-----------0-----------0----||---3--3--3--3--|
|---------------------------------------||---x--x--x--x--|

   G       Asus2/D            E
|-3----------2----------------0--|
|-----------------------------0--|
|----0-----------0------------0--|
|-------0-----------2---------2--|
|----------0-----------0------2--|
|-----------------------------0--|

And then:

 G   Gsus2  Gsus2/E   Gsus4/E   Asus2/D     Em/C
|-3-----2------0---------0---------2-----------0----|
|-2-----0------2---------3---------0-----------3----|
|-0-----0------0---------2---------0-----------2----|
|-0-----0------0---------0---------2-----------0----|
|-3-----3------3---------3---------0-----------0----|
|-3-----3------3---------3---------0-----------0----|

Have a nice day... :) and let's play! 

Tap to rate this tab
 
# A B C D E F G H I J K L M N O P Q R S T U V W X Y Z