Guitaretab - guitar tabs
Song name
# A B C D E F G H I J K L M N O P Q R S T U V W X Y Z

April Wine - Wanna Rock tab

-------------------------------------------------------------------------------
			     WANNA ROCK - April Wine
-------------------------------------------------------------------------------
Tabbed by: Isaias Garcia

Tuning: Standard


Rhythm Guitar 

     E  E  E  E  E  E  E  E     E  E  E  E  E  E  E  E     E  E  E  E  E  E  E  E   
E||--------------------------|--------------------------|--------------------------|
B||--------------------------|--------------------------|--------------------------|
G||--------------------------|--------------------------|--------------------------|
D||--------------------------|--------------------------|--------------------------|
A||--5--5--7--5--5--5--7--5--|--5--5--7--5--5--5--7--5--|--5--5--7--5--5--5--7--5--|
E||--3--3--3--3--3--3--3--3--|--3--3--3--3--3--3--3--3--|--3--3--3--3--3--3--3--3--|


                             PM PM PM PM PM PM PM PM    PM PM PM PM PM PM PM PM  
  E  E  E  E  E  E  E  E     E  E  E  E  E  E  E  E     E  E  E  E  E  E  E  E   
--------------------------|--------------------------|--------------------------|
--------------------------|--------------------------|--------------------------|
--------------------------|--------------------------|--------------------------|
--------------------------|--------------------------|--------------------------|
--5--5--7--5--5--5--7--5--|--5--5--7--5--5--5--7--5--|--5--5--7--5--5--5--7--5--|
--3--3--3--3--3--3--3--3--|--3--3--3--3--3--3--3--3--|--3--3--3--3--3--3--3--3--|


  PM PM PM PM PM PM PM PM    PM PM PM PM PM PM PM PM    PM PM PM PM PM PM PM PM  
  E  E  E  E  E  E  E  E     E  E  E  E  E  E  E  E     E  E  E  E  E  E  E  E   
--------------------------|--------------------------|--------------------------|
--------------------------|--------------------------|--------------------------|
--------------------------|--------------------------|--------------------------|
--------------------------|--------------------------|--------------------------|
--5--5--7--5--5--5--7--5--|--5--5--7--5--5--5--7--5--|--5--5--7--5--5--5--7--5--|
--3--3--3--3--3--3--3--3--|--3--3--3--3--3--3--3--3--|--3--3--3--3--3--3--3--3--|


  PM PM PM PM PM PM PM PM    PM PM PM PM PM PM PM PM    PM PM PM PM PM PM PM PM  
  E  E  E  E  E  E  E  E     E  E  E  E  E  E  E  E     E  E  E  E  E  E  E  E   
--------------------------|--------------------------|--------------------------|
--------------------------|--------------------------|--------------------------|
--------------------------|--------------------------|--------------------------|
--------------------------|--------------------------|--------------------------|
--5--5--7--5--5--5--7--5--|--5--5--7--5--5--5--7--5--|--5--5--7--5--5--5--7--5--|
--3--3--3--3--3--3--3--3--|--3--3--3--3--3--3--3--3--|--3--3--3--3--3--3--3--3--|


  E  E  E  E  E  E  E  E     E  E  E  E  E  E  E  E     E  E  E  E  E  E  E  E   
--------------------------|--------------------------|--------------------------|
--------------------------|--------------------------|--------------------------|
--------------------------|--------------------------|--------------------------|
--5--5--7--5--5--5--7--5--|--5--5--7--5--5--5--7--5--|--5--5--7--5--5--5--7--5--|
--3--3--3--3--3--3--3--3--|--3--3--3--3--3--3--3--3--|--3--3--3--3--3--3--3--3--|
--------------------------|--------------------------|--------------------------|


  E  E  E  E  E  E  E  E     E  E  E  E  E  E  E  E     E  E  E  E  E  E  E  E   
--------------------------|--------------------------|--------------------------|
--------------------------|--------------------------|--------------------------|
--------------------------|--------------------------|--------------------------|
--5--5--7--5--5--5--7--5--|--5--5--7--5--5--5--7--5--|--5--5--7--5--6--6--8--6--|
--3--3--3--3--3--3--3--3--|--3--3--3--3--3--3--3--3--|--3--3--3--3--4--4--4--4--|
--------------------------|--------------------------|--------------------------|


  E  E  E  E  E  E  E  E     E  E  E  E  Q    E  E     E  E  E  E  E  E  E  E   
--------------------------|-------------------------|--------------------------|
--------------------------|-------------------------|--------------------------|
--------------------------|-------------------------|--------------------------|
--7--7--9--7--7--7--9--7--|--7--7--9--7--7----5--5--|--------------------------|
--5--5--5--5--5--5--5--5--|--5--5--5--5--5----3--3--|--5--5--7--5--5--5--7--5--|
--------------------------|-------------------------|--3--3--3--3--3--3--3--3--|


  E  E  E  E  E  E  E  E     E  E  E  E  E  E  E  E     E  E  E  E  E  E  E  E   
--------------------------|--------------------------|--------------------------|
--------------------------|--------------------------|--------------------------|
--------------------------|--------------------------|--------------------------|
--------------------5--5--|--------------------------|--------------------5--5--|
--5--5--7--5--5--5--3--3--|--5--5--7--5--5--5--7--5--|--5--5--7--5--5--5--3--3--|
--3--3--3--3--3--3--------|--3--3--3--3--3--3--3--3--|--3--3--3--3--3--3--------|


  E  E  E  E  E  E  E  E     E  E  E  E  E  E  E  E     E  E  E  E  E  E  E  E   
--------------------------|--------------------------|--------------------------|
--------------------------|--------------------------|--------------------------|
--------------------------|--------------------------|--------------------------|
--------------------------|--------------------5--5--|--------------------------|
--5--5--7--5--5--5--7--5--|--5--5--7--5--5--5--3--3--|--5--5--7--5--5--5--7--5--|
--3--3--3--3--3--3--3--3--|--3--3--3--3--3--3--------|--3--3--3--3--3--3--3--3--|


                            PM PM PM PM PM PM PM PM    PM PM PM PM PM PM PM PM  
  E  E  E  E  E  E  Q       E  E  E  E  E  E  E  E     E  E  E  E  E  E  E  E   
-------------------------|--------------------------|--------------------------|
-------------------------|--------------------------|--------------------------|
-------------------------|--------------------------|--------------------------|
-----------5--L--5--5----|--------------------------|--------------------------|
--5--5--7--3--L--3--3----|--5--5--7--5--5--5--7--5--|--5--5--7--5--5--5--7--5--|
--3--3--3----------------|--3--3--3--3--3--3--3--3--|--3--3--3--3--3--3--3--3--|


  PM PM PM PM PM PM PM PM    PM PM PM PM PM PM PM PM    PM PM PM PM PM PM PM PM  
  E  E  E  E  E  E  E  E     E  E  E  E  E  E  E  E     E  E  E  E  E  E  E  E   
--------------------------|--------------------------|--------------------------|
--------------------------|--------------------------|--------------------------|
--------------------------|--------------------------|--------------------------|
--------------------------|--------------------------|--5--5--7--5--5--5--7--5--|
--5--5--7--5--5--5--7--5--|--5--5--7--5--5--5--7--5--|--3--3--3--3--3--3--3--3--|
--3--3--3--3--3--3--3--3--|--3--3--3--3--3--3--3--3--|--------------------------|


  PM PM PM PM PM PM PM PM    PM PM PM PM PM PM PM PM    PM PM PM PM PM PM PM PM  
  E  E  E  E  E  E  E  E     E  E  E  E  E  E  E  E     E  E  E  E  E  E  E  E   
--------------------------|--------------------------|--------------------------|
--------------------------|--------------------------|--------------------------|
--------------------------|--------------------------|--------------------------|
--5--5--7--5--5--5--7--5--|--------------------------|--------------------------|
--3--3--3--3--3--3--3--3--|--5--5--7--5--5--5--7--5--|--5--5--7--5--5--5--7--5--|
--------------------------|--3--3--3--3--3--3--3--3--|--3--3--3--3--3--3--3--3--|


  E  E  E  E  E  E  E  E     E  E  E  E  E  E  E  E     E  E  E  E  E  E  E  E   
--------------------------|--------------------------|--------------------------|
--------------------------|--------------------------|--------------------------|
--------------------------|--------------------------|--------------------------|
--5--5--7--5--5--5--7--5--|--5--5--7--5--5--5--7--5--|--5--5--7--5--5--5--7--5--|
--3--3--3--3--3--3--3--3--|--3--3--3--3--3--3--3--3--|--3--3--3--3--3--3--3--3--|
--------------------------|--------------------------|--------------------------|


  E  E  E  E  E  E  E  E     E  E  E  E  E  E  E  E     E  E  E  E  E  E  E  E   
--------------------------|--------------------------|--------------------------|
--------------------------|--------------------------|--------------------------|
--------------------------|--------------------------|--------------------------|
--5--5--7--5--5--5--7--5--|--5--5--7--5--5--5--7--5--|--5--5--7--5--6--6--8--6--|
--3--3--3--3--3--3--3--3--|--3--3--3--3--3--3--3--3--|--3--3--3--3--4--4--4--4--|
--------------------------|--------------------------|--------------------------|


  E  E  E  E  E  E  E  E     E  E  E  E  Q    E  E     E  E  E  E  E  E  E  E   
--------------------------|-------------------------|--------------------------|
--------------------------|-------------------------|--------------------------|
--------------------------|-------------------------|--------------------------|
--7--7--9--7--7--7--9--7--|--7--7--9--7--7----5--5--|--------------------------|
--5--5--5--5--5--5--5--5--|--5--5--5--5--5----3--3--|--5--5--7--5--5--5--7--5--|
--------------------------|-------------------------|--3--3--3--3--3--3--3--3--|


  E  E  E  E  E  E  E  E     E  E  E  E  E  E  E  E     E  E  E  E  E  E  E  E   
--------------------------|--------------------------|--------------------------|
--------------------------|--------------------------|--------------------------|
--------------------------|--------------------------|--------------------------|
--------------------5--5--|--------------------------|--------------------5--5--|
--5--5--7--5--5--5--3--3--|--5--5--7--5--5--5--7--5--|--5--5--7--5--5--5--3--3--|
--3--3--3--3--3--3--------|--3--3--3--3--3--3--3--3--|--3--3--3--3--3--3--------|


  E  E  E  E  E  E  E  E     E  E  E  E  E  E  E  E     E  E  E  E  E  E  E  E   
--------------------------|--------------------------|--------------------------|
--------------------------|--------------------------|--------------------------|
--------------------------|--------------------------|--------------------------|
--------------------------|--------------------5--5--|--------------------------|
--5--5--7--5--5--5--7--5--|--5--5--7--5--5--5--3--3--|--5--5--7--5--5--5--7--5--|
--3--3--3--3--3--3--3--3--|--3--3--3--3--3--3--------|--3--3--3--3--3--3--3--3--|


                                                                       PM PM PM PM PM PM PM PM  
  E  E  E  E  E  E  E  E     Q    Q    H           W                   E  E  E  E  E  E  E  E   
--------------------------|---------------------|-------------------|--------------------------|
--------------------------|---------------------|-------------------|--------------------------|
--------------------------|---------------------|-------------------|--------------------------|
--------------------5--5--|---------------------|-------------------|--5--5--7--5--5--5--7--5--|
--5--5--7--5--5--5--3--3--|--5------------------|-------------------|--3--3--3--3--3--3--3--3--|
--3--3--3--3--3--3--------|--3------------------|-------------------|--------------------------|


  PM PM PM PM PM PM PM PM    PM PM PM PM PM PM PM PM    PM PM PM PM PM PM PM PM  
  E  E  E  E  E  E  E  E     E  E  E  E  E  E  E  E     E  E  E  E  E  E  E  E   
--------------------------|--------------------------|--------------------------|
--------------------------|--------------------------|--------------------------|
--------------------------|--------------------------|--------------------------|
--5--5--7--5--5--5--7--5--|--------------------------|--------------------------|
--3--3--3--3--3--3--3--3--|--5--5--7--5--5--5--7--5--|--5--5--7--5--5--5--7--5--|
--------------------------|--3--3--3--3--3--3--3--3--|--3--3--3--3--3--3--3--3--|


  PM PM PM PM PM PM PM PM    PM PM PM PM PM PM PM PM    PM PM PM PM PM PM PM PM  
  E  E  E  E  E  E  E  E     E  E  E  E  E  E  E  E     E  E  E  E  E  E  E  E   
--------------------------|--------------------------|--------------------------|
--------------------------|--------------------------|--------------------------|
--------------------------|--------------------------|--------------------------|
--7--7--9--7--7--7--9--7--|--7--7--9--7--7--7--9--7--|--7--7--9--7--7--7--9--7--|
--5--5--5--5--5--5--5--5--|--5--5--5--5--5--5--5--5--|--5--5--5--5--5--5--5--5--|
--------------------------|--------------------------|--------------------------|


  PM PM PM PM PM PM PM PM    PM PM PM PM PM PM PM PM    PM PM PM PM PM PM PM PM  
  E  E  E  E  E  E  E  E     E  E  E  E  E  E  E  E     E  E  E  E  E  E  E  E   
--------------------------|--------------------------|--------------------------|
--------------------------|--------------------------|--------------------------|
--------------------------|--------------------------|--------------------------|
--7--7--9--7--7--7--9--7--|--------------------------|--------------------------|
--5--5--5--5--5--5--5--5--|--5--5--7--5--5--5--7--5--|--5--5--7--5--5--5--7--5--|
--------------------------|--3--3--3--3--3--3--3--3--|--3--3--3--3--3--3--3--3--|


  PM PM PM PM PM PM PM PM    PM PM PM PM PM PM PM PM    PM PM PM PM PM PM PM PM  
  E  E  E  E  E  E  E  E     E  E  E  E  E  E  E  E     E  E  E  E  E  E  E  E   
--------------------------|--------------------------|--------------------------|
--------------------------|--------------------------|--------------------------|
--------------------------|--------------------------|--------------------------|
--------------------------|--------------------------|--5--5--7--5--5--5--7--5--|
--5--5--7--5--5--5--7--5--|--5--5--7--5--5--5--7--5--|--3--3--3--3--3--3--3--3--|
--3--3--3--3--3--3--3--3--|--3--3--3--3--3--3--3--3--|--------------------------|


  PM PM PM PM PM PM PM PM    PM PM PM PM PM PM PM PM    PM PM PM PM PM PM PM PM  
  E  E  E  E  E  E  E  E     E  E  E  E  E  E  E  E     E  E  E  E  E  E  E  E   
--------------------------|--------------------------|--------------------------|
--------------------------|--------------------------|--------------------------|
--------------------------|--------------------------|--------------------------|
--5--5--7--5--5--5--7--5--|--------------------------|--------------------------|
--3--3--3--3--3--3--3--3--|--5--5--7--5--5--5--7--5--|--5--5--7--5--5--5--7--5--|
--------------------------|--3--3--3--3--3--3--3--3--|--3--3--3--3--3--3--3--3--|


  E  E  E  E  E  E  E  E     E  E  E  E  E  E  E  E     E  E  E  E  E  E  E  E   
--------------------------|--------------------------|--------------------------|
--------------------------|--------------------------|--------------------------|
--------------------------|--------------------------|--------------------------|
--5--5--7--5--5--5--7--5--|--5--5--7--5--5--5--7--5--|--5--5--7--5--5--5--7--5--|
--3--3--3--3--3--3--3--3--|--3--3--3--3--3--3--3--3--|--3--3--3--3--3--3--3--3--|
--------------------------|--------------------------|--------------------------|


  E  E  E  E  E  E  E  E     E  E  E  E  E  E  E  E     E  E  E  E  E  E  E  E   
--------------------------|--------------------------|--------------------------|
--------------------------|--------------------------|--------------------------|
--------------------------|--------------------------|--------------------------|
--5--5--7--5--5--5--7--5--|--5--5--7--5--5--5--7--5--|--5--5--7--5--6--6--8--6--|
--3--3--3--3--3--3--3--3--|--3--3--3--3--3--3--3--3--|--3--3--3--3--4--4--4--4--|
--------------------------|--------------------------|--------------------------|


  E  E  E  E  E  E  E  E     E  E  E  E  E  E  E  E     E  E  E  E  E  E  E  E   
--------------------------|--------------------------|--------------------------|
--------------------------|--------------------------|--------------------------|
--------------------------|--------------------------|--------------------------|
--7--7--9--7--7--7--9--7--|--7--7--9--7--------5--5--|--------------------------|
--5--5--5--5--5--5--5--5--|--5--5--5--5--5--5--3--3--|--5--5--7--5--5--5--7--5--|
--------------------------|--------------3--3--------|--3--3--3--3--3--3--3--3--|


  E  E  E  E  E  E  E  E     E  E  E  E  E  E  E  E     E  E  E  E  E  E  E  E   
--------------------------|--------------------------|--------------------------|
--------------------------|--------------------------|--------------------------|
--------------------------|--------------------------|--------------------------|
--------------------5--5--|--------------------------|--------------------5--5--|
--5--5--7--5--5--5--3--3--|--5--5--7--5--5--5--7--5--|--5--5--7--5--5--5--3--3--|
--3--3--3--3--3--3--------|--3--3--3--3--3--3--3--3--|--3--3--3--3--3--3--------|


  E  E  E  E  E  E  E  E     E  E  E  E  Q    E  E     E  E  E  E  E  E  E  E   
--------------------------|-------------------------|--------------------------|
--------------------------|-------------------------|--------------------------|
--------------------------|-------------------------|--------------------------|
--------------------------|-------------------5--5--|--------------------------|
--5--5--7--5--5--5--7--5--|--5--5--7--5--5----3--3--|--5--5--7--5--5--5--7--5--|
--3--3--3--3--3--3--3--3--|--3--3--3--3--3----------|--3--3--3--3--3--3--3--3--|


                                             
  E                                        E  E  E  Q    E  E     Q    Q    H          
---------------------------------------------------------------|---------------------||
---------------------------------------------------------------|---------------------||
---------------------------------------------------------------|---------------------||
---------------------------------------------------------5--5--|---------------------||
--5----------------------------------------5--7--5--5----3--3--|--5------------------||
--3----------------------------------------3--3--3--3----------|--3------------------||



Lead Guitar #1


     W                   W                   W                   W                 
E||-------------------|-------------------|-------------------|-------------------|
B||-------------------|-------------------|-------------------|-------------------|
G||-------------------|-------------------|-------------------|-------------------|
D||-------------------|-------------------|-------------------|-------------------|
A||-------------------|-------------------|-------------------|-------------------|
E||-------------------|-------------------|-------------------|-------------------|


  W                   W                   W                   W                   W                 
-------------------|-------------------|-------------------|-------------------|-------------------|
-------------------|-------------------|-------------------|-------------------|-------------------|
-------------------|-------------------|-------------------|-------------------|-------------------|
-------------------|-------------------|-------------------|-------------------|-------------------|
-------------------|-------------------|-------------------|-------------------|-------------------|
-------------------|-------------------|-------------------|-------------------|-------------------|


  W                   W                   W                   W                   W                 
-------------------|-------------------|-------------------|-------------------|-------------------|
-------------------|-------------------|-------------------|-------------------|-------------------|
-------------------|-------------------|-------------------|-------------------|-------------------|
-------------------|-------------------|-------------------|-------------------|-------------------|
-------------------|-------------------|-------------------|-------------------|-------------------|
-------------------|-------------------|-------------------|-------------------|-------------------|


  W                   W                   W                   E  E  E  E  E  E  Q     
-------------------|-------------------|-------------------|-------------------------|
-------------------|-------------------|-------------------|-------------------------|
-------------------|-------------------|-------------------|-----5--5--5--6--6--6----|
-------------------|-------------------|-------------------|-----5--5--5--6--6--6----|
-------------------|-------------------|-------------------|-----3--3--3--4--4--4----|
-------------------|-------------------|-------------------|-------------------------|


  W                   H.           Q       Q    Q    E  E  E  E     Q    Q    Q    E  E   
-------------------|--------------------|------------------------|-----------------------|
-------------------|---------------5----|-------8-------8-----8--|--L----8---------------|
--7----------------|--L------------5----|-------7-------7-----7--|--L----7---------5--5--|
--7----------------|--L------------5----|-------5-------5-----5--|--L----5---------5--5--|
--5----------------|--L------------3----|------------------------|-----------------------|
-------------------|--------------------|------------------------|-----------------------|


  Q    Q    E  E  E  E     Q    Q    Q    E  E     Q    Q    E  E  E  E     Q    Q    Q    E  E   
------------------------|-----------------------|------------------------|-----------------------|
-------8-------8-----8--|--L----8---------------|-------8-------8-----8--|--L----8---------------|
-------7-------7-----7--|--L----7---------5--5--|-------7-------7-----7--|--L----7---------5--5--|
-------5-------5-----5--|--L----5---------5--5--|-------5-------5-----5--|--L----5---------5--5--|
------------------------|-----------------------|------------------------|-----------------------|
------------------------|-----------------------|------------------------|-----------------------|


  Q    Q    E  E  E  E     E  E  E  E  E  E  E  E     W                   W                 
------------------------|--------------------------|-------------------|-------------------|
-------8-------8-----8--|--L--8--------------------|-------------------|-------------------|
-------7-------7-----7--|--L--7-----5--L--5--5--5--|-------------------|-------------------|
-------5-------5-----5--|--L--5-----5--L--5--5--5--|-------------------|-------------------|
------------------------|-----------3--L--3--3--3--|-------------------|-------------------|
------------------------|--------------------------|-------------------|-------------------|


  W                   W                   W                   W                   W                 
-------------------|-------------------|-------------------|-------------------|-------------------|
-------------------|-------------------|-------------------|-------------------|-------------------|
-------------------|-------------------|-------------------|-------------------|-------------------|
-------------------|-------------------|-------------------|-------------------|-------------------|
-------------------|-------------------|-------------------|-------------------|-------------------|
-------------------|-------------------|-------------------|-------------------|-------------------|

[ Tab from: http://www.guitaretab.com/a/april-wine/115017.html ]
  W                   W                   W                   W                   W                 
-------------------|-------------------|-------------------|-------------------|-------------------|
-------------------|-------------------|-------------------|-------------------|-------------------|
-------------------|-------------------|-------------------|-------------------|-------------------|
-------------------|-------------------|-------------------|-------------------|-------------------|
-------------------|-------------------|-------------------|-------------------|-------------------|
-------------------|-------------------|-------------------|-------------------|-------------------|


  W                   E  E  E  E  E  E  Q       W                   H.           Q     
-------------------|-------------------------|-------------------|--------------------|
-------------------|-------------------------|-------------------|---------------5----|
-------------------|-----5--5--5--6--6--6----|--7----------------|--L------------5----|
-------------------|-----5--5--5--6--6--6----|--7----------------|--L------------5----|
-------------------|-----3--3--3--4--4--4----|--5----------------|--L------------3----|
-------------------|-------------------------|-------------------|--------------------|


  Q    Q    E  E  E  E     Q    Q    Q    E  E     Q    Q    E  E  E  E     Q    Q    Q    E  E   
------------------------|-----------------------|------------------------|-----------------------|
-------8-------8-----8--|--L----8---------------|-------8-------8-----8--|--L----8---------------|
-------7-------7-----7--|--L----7---------5--5--|-------7-------7-----7--|--L----7---------5--5--|
-------5-------5-----5--|--L----5---------5--5--|-------5-------5-----5--|--L----5---------5--5--|
------------------------|-----------------------|------------------------|-----------------------|
------------------------|-----------------------|------------------------|-----------------------|


  Q    Q    E  E  E  E     Q    Q    Q    E  E     Q    Q    E  E  E  E     Q    Q    Q    E  E   
------------------------|-----------------------|------------------------|-----------------------|
-------8-------8-----8--|--L----8---------------|-------8-------8-----8--|--L----8---------------|
-------7-------7-----7--|--L----7---------5--5--|-------7-------7-----7--|--L----7---------5--5--|
-------5-------5-----5--|--L----5---------5--5--|-------5-------5-----5--|--L----5---------5--5--|
------------------------|-----------------------|------------------------|-----------------------|
------------------------|-----------------------|------------------------|-----------------------|


  W                   W                   W                   W                   W                 
-------------------|-------------------|-------------------|-------------------|-------------------|
-------------------|-------------------|-------------------|-------------------|-------------------|
-------------------|-------------------|-------------------|-------------------|-------------------|
-------------------|-------------------|-------------------|-------------------|-------------------|
-------------------|-------------------|-------------------|-------------------|-------------------|
-------------------|-------------------|-------------------|-------------------|-------------------|


  W                   W                   W                   W                   W                 
-------------------|-------------------|-------------------|-------------------|-------------------|
-------------------|-------------------|-------------------|-------------------|-------------------|
-------------------|-------------------|-------------------|-------------------|-------------------|
-------------------|-------------------|-------------------|-------------------|-------------------|
-------------------|-------------------|-------------------|-------------------|-------------------|
-------------------|-------------------|-------------------|-------------------|-------------------|


  W                   W                   W                   W                   W                 
-------------------|-------------------|-------------------|-------------------|-------------------|
-------------------|-------------------|-------------------|-------------------|-------------------|
-------------------|-------------------|-------------------|-------------------|-------------------|
-------------------|-------------------|-------------------|-------------------|-------------------|
-------------------|-------------------|-------------------|-------------------|-------------------|
-------------------|-------------------|-------------------|-------------------|-------------------|


  W                   W                   W                   W                   W                 
-------------------|-------------------|-------------------|-------------------|-------------------|
-------------------|-------------------|-------------------|-------------------|-------------------|
-------------------|-------------------|-------------------|-------------------|-------------------|
-------------------|-------------------|-------------------|-------------------|-------------------|
-------------------|-------------------|-------------------|-------------------|-------------------|
-------------------|-------------------|-------------------|-------------------|-------------------|


  W                   W                   W                   E  E  E  E  E  E  Q     
-------------------|-------------------|-------------------|-------------------------|
-------------------|-------------------|-------------------|-------------------------|
-------------------|-------------------|-------------------|-----5--5--5--6--6--6----|
-------------------|-------------------|-------------------|-----5--5--5--6--6--6----|
-------------------|-------------------|-------------------|-----3--3--3--4--4--4----|
-------------------|-------------------|-------------------|-------------------------|


  W                   H.           Q       Q    Q    E  E  E  E     Q    Q    Q    E  E   
-------------------|--------------------|------------------------|-----------------------|
-------------------|---------------5----|-------8-------8-----8--|--L----8---------------|
--7----------------|--L------------5----|-------7-------7-----7--|--L----7---------5--5--|
--7----------------|--L------------5----|-------5-------5-----5--|--L----5---------5--5--|
--5----------------|--L------------3----|------------------------|-----------------------|
-------------------|--------------------|------------------------|-----------------------|


  Q    Q    E  E  E  E     Q    Q    Q    E  E     Q    Q    E  E  E  E     Q    Q    Q    E  E   
------------------------|-----------------------|------------------------|-----------------------|
-------8-------8-----8--|--L----8---------------|-------8-------8-----8--|--L----8---------------|
-------7-------7-----7--|--L----7---------5--5--|-------7-------7-----7--|--L----7---------5--5--|
-------5-------5-----5--|--L----5---------5--5--|-------5-------5-----5--|--L----5---------5--5--|
------------------------|-----------------------|------------------------|-----------------------|
------------------------|-----------------------|------------------------|-----------------------|


                                             
  Q    Q    E  E  E  E     Q                                        Q    Q    E  E   
------------------------|-----------------------------------------------------------|
-------8-------8-----8--|--L----------------------------------------8---------------|
-------7-------7-----7--|--L----------------------------------------7---------5--5--|
-------5-------5-----5--|--L----------------------------------------5---------5--5--|
------------------------|-----------------------------------------------------------|
------------------------|-----------------------------------------------------------|


  W                  
-------------------||
-------------------||
-------------------||
-------------------||
-------------------||
-------------------||




Lead Guitar #2


     W                   W                   W                   W                 
E||-------------------|-------------------|-------------------|-------------------|
B||-------------------|-------------------|-------------------|-------------------|
G||-------------------|-------------------|-------------------|-------------------|
D||-------------------|-------------------|-------------------|-------------------|
A||-------------------|-------------------|-------------------|-------------------|
E||-------------------|-------------------|-------------------|-------------------|


  W                   W                   W                   W                   W                 
-------------------|-------------------|-------------------|-------------------|-------------------|
-------------------|-------------------|-------------------|-------------------|-------------------|
-------------------|-------------------|-------------------|-------------------|-------------------|
-------------------|-------------------|-------------------|-------------------|-------------------|
-------------------|-------------------|-------------------|-------------------|-------------------|
-------------------|-------------------|-------------------|-------------------|-------------------|


  W                   W                   W                   W                   W                 
-------------------|-------------------|-------------------|-------------------|-------------------|
-------------------|-------------------|-------------------|-------------------|-------------------|
-------------------|-------------------|-------------------|-------------------|-------------------|
-------------------|-------------------|-------------------|-------------------|-------------------|
-------------------|-------------------|-------------------|-------------------|-------------------|
-------------------|-------------------|-------------------|-------------------|-------------------|


  W                   W                   W                   W                   W                 
-------------------|-------------------|-------------------|-------------------|-------------------|
-------------------|-------------------|-------------------|-------------------|-------------------|
-------------------|-------------------|-------------------|-------------------|-------------------|
-------------------|-------------------|-------------------|-------------------|-------------------|
-------------------|-------------------|-------------------|-------------------|-------------------|
-------------------|-------------------|-------------------|-------------------|-------------------|


  W                   W                   W                   W                   W                 
-------------------|-------------------|-------------------|-------------------|-------------------|
-------------------|-------------------|-------------------|-------------------|-------------------|
-------------------|-------------------|-------------------|-------------------|-------------------|
-------------------|-------------------|-------------------|-------------------|-------------------|
-------------------|-------------------|-------------------|-------------------|-------------------|
-------------------|-------------------|-------------------|-------------------|-------------------|


  W                   W                   W                   W                   W                 
-------------------|-------------------|-------------------|-------------------|-------------------|
-------------------|-------------------|-------------------|-------------------|-------------------|
-------------------|-------------------|-------------------|-------------------|-------------------|
-------------------|-------------------|-------------------|-------------------|-------------------|
-------------------|-------------------|-------------------|-------------------|-------------------|
-------------------|-------------------|-------------------|-------------------|-------------------|


  W                   W                   W                   W                   W                 
-------------------|-------------------|-------------------|-------------------|-------------------|
-------------------|-------------------|-------------------|-------------------|-------------------|
-------------------|-------------------|-------------------|-------------------|-------------------|
-------------------|-------------------|-------------------|-------------------|-------------------|
-------------------|-------------------|-------------------|-------------------|-------------------|
-------------------|-------------------|-------------------|-------------------|-------------------|


  W                   W                   W                   W                   W                 
-------------------|-------------------|-------------------|-------------------|-------------------|
-------------------|-------------------|-------------------|-------------------|-------------------|
-------------------|-------------------|-------------------|-------------------|-------------------|
-------------------|-------------------|-------------------|-------------------|-------------------|
-------------------|-------------------|-------------------|-------------------|-------------------|
-------------------|-------------------|-------------------|-------------------|-------------------|


  W                   W                   W                   W                   W                 
-------------------|-------------------|-------------------|-------------------|-------------------|
-------------------|-------------------|-------------------|-------------------|-------------------|
-------------------|-------------------|-------------------|-------------------|-------------------|
-------------------|-------------------|-------------------|-------------------|-------------------|
-------------------|-------------------|-------------------|-------------------|-------------------|
-------------------|-------------------|-------------------|-------------------|-------------------|


  W                   W                   W                   W                   W                 
-------------------|-------------------|-------------------|-------------------|-------------------|
-------------------|-------------------|-------------------|-------------------|-------------------|
-------------------|-------------------|-------------------|-------------------|-------------------|
-------------------|-------------------|-------------------|-------------------|-------------------|
-------------------|-------------------|-------------------|-------------------|-------------------|
-------------------|-------------------|-------------------|-------------------|-------------------|


  W                   W                   W                   E  E  E  E  S  S  S S E  E   
-------------------|-------------------|-------------------|-----6------------------------|
-------------------|-------------------|-------------------|-----6--8--5--3h-5p-3---3-----|
-------------------|-------------------|-------------------|-----5-----5--3--5p-3---3-----|
-------------------|-------------------|-------------------|----------------------5----5--|
-------------------|-------------------|-------------------|------------------------------|
-------------------|-------------------|-------------------|------------------------------|


     >                          T       T       T       T    T        
  E  E  E  E  H            S  S S  S  S S  S  S S  S  S S  S S  S  S  
------------------------|--------------------------------------------|
------------------------|--------------------------------------------|
--3-----3---------------|--2h-5-7p-2h-5-7p-2h-5-7p-3h-5-7p-5-7p-3h-5-|
--3-----3--5--L~--------|--------------------------------------------|
-----5------------------|--------------------------------------------|
------------------------|--------------------------------------------|


  T       T    T       T       T       T       T  
                                  |--3-|  |--3-|  
  S  S  S S  S S  S  S S  S  S S  S  S S  S  S S  
-------------------------------------------------|
-------------------------------------------------|
--7p-3h-5-7p-5-7p-3h-5-7p-3h-5-7p-3h-5-7p-3h-5-7-|
-------------------------------------------------|
-------------------------------------------------|
-------------------------------------------------|


      T         T         T      T         T         T         T       T          T           
   S  S  S   S  S  S   S  S   S  S  S   S  S  S   S  S      S  S   E   S   S  E   Q.     E    
--------------------------------------------------------|------------------------------------|
--------------------------------------------------------|--------------------------------5S--|
--10-12p-7h-10-12p-7h-10-12p-10-12p-7h-10-12p-7h-10-12h-|--10-12p-10--12p-10p-7--12------5S--|
--------------------------------------------------------|------------------------------------|
--------------------------------------------------------|------------------------------------|
--------------------------------------------------------|------------------------------------|


   ^             ^              ^                                    
   E   E   E     E   E   E      E   E      E   E   E   E   H         
--10--10--10--9g10---L--10--10g10--10--|--10------------------------|
--10--10--10--9g10---L--10---9g10--10--|--10--12--10------10--------|
---------------------------------------|------12--10--12--10--------|
---------------------------------------|--------------12--10--------|
---------------------------------------|----------------------------|
---------------------------------------|----------------------------|


   PM          PM          PM  PM             PM                                       
   E   E   E   E   E   E   E   E      E   E   E   E   Q     Q        W                 
----------------------------------|-------------------------------|-------------------|
------10--10------10--10----------|--10---x------10---L-----L\----|-------------------|
------10--10------10--10----------|--10---x------10---L-----L\----|-------------------|
------10--10------10--10----------|--10---x------10---L-----L\----|-------------------|
--12----------12----------12--12--|----------12-------------------|-------------------|
----------------------------------|-------------------------------|-------------------|


  H        E  E  E  E     E   E  Q    H           H        E  E   E   E     W                 
-----------------------|-----------------------|-------------------------|-------------------|
-----------------------|-----------------------|--------------3S--4S--5--|-------------------|
-----------------------|-----------------------|--------------3S--4S--5--|-------------------|
--------------x--x--8--|--L\-------------------|--------------3S--4S--5--|-------------------|
--------------x--x--8--|--L\-------------------|--------------1S--2S--3--|-------------------|
--------------------6--|--L\-------------------|-------------------------|-------------------|


  H        E  E  E  E      Q    Q    H           W                   W                 
------------------------|---------------------|-------------------|-------------------|
------------------------|---------------------|-------------------|-------------------|
--------------x--5--3h--|--4------------------|-------------------|-------------------|
--------------x--5------|---------------------|-------------------|-------------------|
------------------------|---------------------|-------------------|-------------------|
------------------------|---------------------|-------------------|-------------------|


                     ^             ^          ^                                     
  H        Q    E    E     E  E    E  E  E    E  E  E     E  E   E   E  Q    Q      
-------------------7g8--|--8--8--7g8--8--L--7g8--8--8--|--8--8---------------------|
-------------------7g8--|--------7g8--8--L--7g8-----8--|--8--8--10--10--8----L\----|
------------------------|------------------------------|--------10--10--8----L\----|
------------------------|------------------------------|---------------------------|
------------------------|------------------------------|---------------------------|
------------------------|------------------------------|---------------------------|


  W                   E   E   Q     E   E   Q       H        Q    E  E    
-------------------|-----------------------------|-----------------------|
-------------------|-----------------------------|-------------------9s--|
-------------------|-----------------------------|-----------------------|
-------------------|-----------------------------|-----------------------|
-------------------|-----10--10\-------11--11----|-----------------------|
-------------------|------8---8\--------9---9----|-----------------------|


   E   E   E   E   Q     Q        Q      E  E  E  E  E  E     Q    E  E  H         
------10------10---L-----L\----|---------------------------|----------------------|
--10------10-------------------|-------5g6--6--6--6--6--6--|--L----5--3-----------|
-------------------------------|-------6g7--7--7--7--7--7--|--L----5--3-----------|
-------------------------------|---------------------------|----------------------|
-------------------------------|---------------------------|----------------------|
-------------------------------|---------------------------|----------------------|


  Q      E  E  E  E  E  E     E  E  E  E  H           Q      E  E  E  E  E  E   
---------------------------|-----------------------|-------4g5--5--5--5--5--5--|
-------5g6--6--6--6--6--6--|--6--6--5--3-----------|-------5g6--6--6--6--6--6--|
-------6g7--7--7--7--7--7--|--7--7--5--3-----------|-------6g7--7--7--7--7--7--|
---------------------------|-----------------------|---------------------------|
---------------------------|-----------------------|---------------------------|
---------------------------|-----------------------|---------------------------|


  E  E  E  E  H           Q      E  E  E  E  E  E     E  E  E  E  H         
--L--5-----------------|-------5g6--6--6--6--6--6--|--6--6-----------------|
--L--6--5--3-----------|-------5g6--6--6--6--6--6--|--6--6--5--3-----------|
--L--7--5--3-----------|-------6g7--7--7--7--7--7--|--7--7--5--3-----------|
-----------------------|---------------------------|-----------------------|
-----------------------|---------------------------|-----------------------|
-----------------------|---------------------------|-----------------------|


    
  W                                          
-------------------------------------------||
-------------------------------------------||
-------------------------------------------||
-------------------------------------------||
-------------------------------------------||
-------------------------------------------||




Duration Legend
---------------
W - whole
H - half
Q - quarter
E - 8th
S - 16th
T - 32nd
X - 64th
. - note dotted
|-n-|  - n-tuplets


Tablature Legend
----------------
L - tied note
x - dead note
g - grace note
(n) - ghost note
> - accentuded note
NH - natural harmonic
AH - artificial harmonic
TH - tapped harmonic
SH - semi harmonic
PH - pitch harmonic
h - hammer on
p - pull off
b - bend
br - bendRelease
pb - preBend
pbr - preBendRelease
brb - bendReleaseBend
\n/ - tremolo bar dip
\n - tremolo bar dive
-/n - tremolo bar Release up
/n\ - tremolo bar inverted dip
/n - tremolo bar return
-\n - tremolo bar Release down
S - shift slide
s - legato slide
/ -  slide into from below or out of upwards
\ -  slide into from above or out of downwards
~ - vibrato
W - wide vibrato
tr - trill
TP - tremolo picking
T - tapping
S - slap
P - pop
< - fade in
^ - brush up
v - brush down
Related for Wanna Rock tab
Advertisement will be closed in 10 seconds