Song name
# A B C D E F G H I J K L M N O P Q R S T U V W X Y Z

April Wine - Oh What A Night tab

----------------------------------------------------------------------------
			     Oh What a Night - April Wine
----------------------------------------------------------------------------

e|---------------------------------------------------------------------------|
B|---------------------------------------------------------------------------|
G|---------------------------------------------------------------------------|
D|---------------------------7-----------------9-----------------------------|x2
A|------7--6-------7--6------7-------9--8------9-----------------------------|
E|------------5----------5---5-------------7---7-----------------------------|

e|--------------------------------------------------------------------------|
B|--------------------------------------------------------------------------|
G|---9----------------9-----------------------------------------------------|
D|---9--9----4--7-----9--9----4--7------------------------------------------|
A|---7--9----4--7-----7--9----4--7------------------------------------------|
E|------7----2--5--------7----2--5------------------------------------------|
Tap to rate this tab
# A B C D E F G H I J K L M N O P Q R S T U V W X Y Z