April Wine - Fast Train tab

Tabbed by: The man from New York City
Tuning: Standard

****************************************************************************
This song is played with two guitars but I've tabbed it out to be played by one. I could
find a decent tab of this awesome song so I figured I would put an exceptional amount
effort into translating this tab. I'm just going to tab all of the parts but the little 
part, you can listen to the song to figure out where to play each part. I've watched
live performances and listened to the record version very carefully so I'm sure its 
accurate. Enjoy!
****************************************************************************

Intro/Main Riff
e|--0-0-0-0---3-3-3-3----2-2-2-2---3-3----3-3--|
B|--2-2-2-2-x-3-3-3-3-xx-3-3-3-3-x-3-3-xx-3-3--|
G|--2-2-2-2-x-0-0-0-0-xx-2-2-2-2-x-0-0-xx-0-0--|
D|--2-2-2-2-x-2-2-2-2-xx-0-0-0-0-x-2-2-xx-0-0--|
A|--0-0-0-0-x-3-3-3-3-xx-----------3-3-xx-2-2--|
E|----------------------------------------3-3--|

e|-------------------------------------------------------|
B|--5/10~--13-13/17-17\15-15b(17)r15-10~--17~--20~--22~--|
G|-------------------------------------------------------|
D|-------------------------------------------------------|
A|-------------------------------------------------------|
E|-------------------------------------------------------|

Chrous
e|-------------------------------------------|
B|-------------------------------------------|
G|--2-2-xxxx-5-5-xxxx-7-7--------------------|
D|--2-2-xxxx-5-5-xxxx-7-7--------------------|
A|--0-0-xxxx-3-3-xxxx-5-5-----0-3-0----------|
E|------------------------0-3-------3-0-3/5--|

e|--0-0-0-0-0-0-0-0-0-0----0-0-0-0-0-0-0-0-0-0--|
B|--2-2-2-2-2-2-2-2-2-2-xx-2-2-2-2-2-2-2-2-2-2--|
G|--2-2-2-2-2-2-2-2-2-2-xx-2-2-2-2-2-2-2-2-2-2--|
D|--2-2-2-2-2-2-2-2-2-2-xx-2-2-2-2-2-2-2-2-2-2--|
A|--0-0-0-0-0-0-0-0-0-0-xx-0-0-0-0-0-0-0-0-0-0--|
E|----------------------------------------------|

e|----------------------|
B|----------------------|
G|----------------------|
D|--2-22-22-2----0h2p0--|
A|--2-22-22-2-----------|
E|--0-00-00-0-3b--------|

e|-------10------8-----6-----5--|
B|------------------------------|
G|--9h10----8h10---6h7---5h7----|
D|------------------------------|
A|------------------------------|
E|------------------------------|

e|-------------------------------------------------------------------|
B|-------------------------------------------------------------------|
G|--222-2-------2-------2--------------------------------------------|
D|--222-2-------2-------2-------------2-------2-------2--------------|
A|--000-0-5-3h4-0-5-3h4-0-5-3h4-------2-------2-------2-------3-4-5--|
E|------------------------------3-4-5-0-5-3h4-0-5-3h4-0-5-3h4--------|

Lyrics

1st Verse
I've read the colours this morning
I've read the colours today
About a man who left from nowhere to be someone
And every day he has to pay in every way

2nd Verse
I met a man from New York City
He spoke of things I can't define
A good man driven frrom his home land
Trying to find some peice of mind

Chrous
It's a fast train
It's a fast train
It's a fast train
It's a fast train
Tap to rate this tab
 
# A B C D E F G H I J K L M N O P Q R S T U V W X Y Z