Song name
# A B C D E F G H I J K L M N O P Q R S T U V W X Y Z

April Wine - Tonight Is A Wonderful Time To Fall In Love chords

Highlighted       Show chord diagrams
Alternate Intro & verse
e|--------------------------------------------------------------|
B|--------------------------------------------------------------|
G|---------11---9--9---11-----------11---9--9---11--------------|
D|---9-9---11---9--9---11---9-9-9---11---9--9---11---9-9-9------|
A|---9-9---9----7--7---9----9-9-9---9----7--7---9----9-9-9------|
E|---7-7--------------------7-7-7--------------------7-7-7------|


Intro:

GD CD GD CD

GD C D GC D



G † † † † † D † † † † C † † † † † DGD C
Red and yellow, seasons changiní gear

G † † † † † † D † † †C † †D † † † † † † † † † † † GD C
giving her all I am, reachiní out with loviní care

† D † † † † † † † † † † † †G † † † †D C † † † † D † † GD C
You know she can feel it, oh yeah, she never has to try

†D † † † † † † † G † † † DC † † † †D † † † † † † † † † † † †G † †D CD
Goiní on forever, oh yeah, knowiní thatís the reason why, † she said




†G † † † † † † †D † † † † † † C † † † †D † † † GDCD
Tonite is a wonderful time to fall in love, oh yeah

G † † † † † † †D † † † † † † C † † † †D † † † G † † †DC
Tonite is a wonderful time to fall in love



GD † † † † † † †G † † † † † DC † † †D † † † † † † † GD C
The two of us together, oh yeah, doiní things the way we do

† † † D † † † † † † † † † † † G † † † † †DCD † † † † † †G † † † † †
And nothiní seems to matter, oh no, long as I can be with you

† † † †C † † † † † † † † † † † † G † †D C † † † † †D † † † † † † † GD C † ††
And you know she can feel it, † cause thatís the way she likes to fly†

G † † † † † † † † † † † † D † †C † †D † † † † † † † † † †G † † † †DC †D
Goiní on forever, oh yeah, knowiní thatís the reason why, † † † she said

G † † † † † † †D † † † † † † †C † † † † D † † †G † † DC
Tonite is a wonderful time to fall in love, oh yeah

G † † † † † † †D † † † † † † † C † † † D † † † G † † DC † † †D
Tonite is a wonderful time to fall in love, she said

G † † † † † † † D † † † † † † C † † † †D † † † G † † DC
Tonite is a wonderful time, to fall in love, †oh yeah

G † † † † † † † D † † † † † † C † † †D † † † †GD C
Tonite is a wonderful time, letís fall in love

D † † † † † † † † G † † C † † † † † † † † † DG † †C D
Letís fall in love everybody, letís fall in love



Alternate:
Fig 3 † † †Repeat then fade away
Love is such a sweet thing
e|------------------------------------------------------------------|
B|------------------------------------------------------------------|
G|-----------13---11-11--13----------------13--11-11---13-----------|
D|---11-11---13---11-11--13----11-11-11----13--11-11---13-----------|
A|---11-11---11---9--9---11----11-11-11----11--9--9----11-----------|
E|---9--9----------------------9--9--9------------------------------|


D † † † † † † † † † † G † † † † † D † †C
Love is such a sweet thing, oh yeah

† † † D † † † † † † † † †GD C
Itís easy when you realize

D † † † † † † † † † † † † † † G † † DC
These moments are forever, oh yeah

D † † † † † † † † † † † † † † G
Itís magic and itís in her eyes, when she said



G † † † † † † †D † † † † † † †C † † † † D † † †G † † DC
Tonite is a wonderful time to fall in love, oh yeah

G † † † † † † †D † † † † † † † C † † † D † † † G † † DC † † †D
Tonite is a wonderful time to fall in love, she said

G † † † † † † † D † † † † † † C † † † †D † † † G † † DC
Tonite is a wonderful time, to fall in love, †oh yeah

G † † † † † † † D † † † † † † C † † †D † † †GD C
Tonite is a wonderful time, to fall in love

D † † † † † † † † GC † † † † † † † † † DG † †C D
Letís fall in love, letís fall in love

G † † † † † † † D † † † † † † C † † † †D † † † G † † DC
Tonite is a wonderful time, to fall in love, †oh yeah

G † † † † † † † D † † † † † † C † † † †D † † † G † † DC
Tonite is a wonderful time to fall in love, letís fall in love
Tap to rate this tab
 
# A B C D E F G H I J K L M N O P Q R S T U V W X Y Z