Song name
# A B C D E F G H I J K L M N O P Q R S T U V W X Y Z

April Wine - Sign Of The Gypsy Queen tab

Intro:

e|------------|-------------------------|
B|------------|--15b---15-12-15b--15~---|
G|------------|o------------------------|
D|------------|o------------------------|
A|-3-2-0------|-------------------------|
E|-------3--0-|-------------------------|


e|--------------------------|
B|-15b--15-12-12h15p12------|
G|---------------------14--o|
D|-------------------------o|
A|--------------------------|
E|--------------------------|

repeat the stuff in the repeat things incase you didnt get it

verse:

e|--------0--------------0------------------|
B|------------0---0----------3---3---0------|
G|--------------0------2-------2------------|
D|-----2-------------0----------------------|
A|---2--------------------------------------|
E|-0----------------------------------------|

                             V insert bridge there
e|-------0----------------------------------|
B|-----------1------------1-----------------|
G|-----2-------2--------0-------------------|
D|---2----------------2---------------------|
A|-0-------------2--3--------3-2-0----------|
E|---------------------------------3-0------|


Bridge & Chorus:

e|------------------0---0---0-------0-------------|
B|------------------0---3---x-------1-------------|
G|-------------0-2--0---2---2-------0-------------|
D|-------0-2-4------2---0---2-------2-------------|
A|-3-2-3------------2-------0-0-2-3-3-3-2-0-------|
E|------------------0-----------------------3-0---|

Solo

e|-----------------------------------------|
B|-10b-----(10)r-p-8----------8-10---------|
G|--------------------9------------9-------|
D|-----------------------------------------|
A|-----------------------------------------|
E|-----------------------------------------|


e|--------12-14-15-15-15-14-14h15----------------------------------|
B|--12-15-------------------------12---15--------------------------|
G|----------------------------------------12---14------------------|
D|------------------------------------------------12/14--14--------|
A|-----------------------------------------------------------------|
E|-----------------------------------------------------------------|

first fast part
e|---------12------------------------------------------------------|
B|------12----15p12----12-15-15-12-----12-12-----------------------|
G|--14b-------------14-------------14b-------14~-12--1214~-12~-----|
D|--------------------------------------------------14---------14~-|
A|-----------------------------------------------------------------|
E|-----------------------------------------------------------------|

                                                let ring
e|----------------------------------------------0---------------|
B|----------------------------------------------0---------------|
G|-2b--2bp0-------------0h2--2b/\/\/\/\/\----2/4----------------|
D|----------2~--0h2-2h4-----------------------------------------|
A|--------------------------------------------------------------|
E|--------------------------------------------------------------|


e|-14h15-14-15b-15b-15r-15r-15r-15r--15r---15b--|
B|----------------------------------------------|
G|----------------------------------------------|
D|----------------------------------------------|
A|----------------------------------------------|
E|----------------------------------------------|

2nd fast part
e|-12--15b-15-12h15p12----12-----------------------------------------------|
B|---------------------15----15-12-12h15p12--12---12h15p12----12-----------|
G|-----------------------------------------14--14b---------14b---14-12-----|
D|--------------------------------------------------------------------14~--|
A|-------------------------------------------------------------------------|
E|-------------------------------------------------------------------------|
Tap to rate this tab
 
# A B C D E F G H I J K L M N O P Q R S T U V W X Y Z