Song name
# A B C D E F G H I J K L M N O P Q R S T U V W X Y Z

April Wine - All Over Town tab

Play Twice
E-5-----1----3-------------------------------------------------------------|
A---7-----3----5-----------------------------------------------------------|
D--7-----3----5------------------------------------------------------------|
G--------------------------------------------------------------------------|
B--------------------------------------------------------------------------|
e--------------------------------------------------------------------------|
After Second Time Play This Riff
E-3--3--3------------------------------------------------------------------|
A--1--3--5-----------------------------------------------------------------|
D---------5----------------------------------------------------------------|
G--------------------------------------------------------------------------|
B--------------------------------------------------------------------------|
e--------------------------------------------------------------------------|
Tap to rate this tab
# A B C D E F G H I J K L M N O P Q R S T U V W X Y Z